AllChordsTabs.com

Joe Satriani - Crowd Chant (Third Version) Chords and Tabs


Artists:
Chords and Tabs » J » Joe Satriani - Crowd Chant (Third Version)

Joe Satriani - Crowd Chant (Third Version)

Joe Satriani - Crowd Chant (Third Version) Chords / Tabs

Joe Satriani - Crowd Chant Third Version: chords and tabs for the song. Watch chords and tablatures for all songs of the singer (group) Joe Satriani. Other chords and tabs for the "Crowd Chant" can find at the bottom of the page.

b - Bend
p - Pull Off
H - Hammer On
V - Vibrato

Here is a different way to play crowd chant that sounds awsome if you have 2 guitars in your band.

The intro part is easy to do all you do is turn your pick sideways and move it up and
the strings to get the sound.  Your pick might have to be a bit rigid on the side for it
work though.  All you do is bring it from high e up to D then high e up to D then back
to high e.  Here's a link to a video to show you how to do it.


e)----------------------------|
b)----------------------------|
g)----------------------------|
D)-4-6--4-6--4-6--4-6--9--11--|
A)-4-4--4-4--4-4--4-6--7---9--|
E)----------------------------|

e)----------------------------|
b)----------------------------|
g)----------------------------|
D)-4-6--4-6--4-6--4-6--9--8---|
A)-4-4--4-4--4-4--4-6--7--6---|
E)----------------------------|

e)---------------------------------------------------|
b)---------------------------------------------------|
g)------------------------------------------------4--|
D)-4--6---4--6---4--6---4--6---9---11------4---2--2--|
A)-4--4---4--4---4--4---4--6---7----9---2--2---0-----|
E)--------------------------------------0------------|

e)----------------------------|
b)----------------------------|
g)----------------------------|
D)-4-6--4-6--4-6--4-6--9--11--|
A)-4-4--4-4--4-4--4-6--7---9--|
E)----------------------------|

e)----------------------------|
b)----------------------------|
g)----------------------------|
D)-4-6--4-6--4-6--4-6--9--8---|
A)-4-4--4-4--4-4--4-6--7--6---|
E)----------------------------|

e)---------------------------------------------------|
b)---------------------------------------------------|
g)------------------------------------------------4--|
D)-4--6---4--6---4--6---4--6---9---11------4---2--2--|
A)-4--4---4--4---4--4---4--6---7----9---2--2---0-----|
E)--------------------------------------0------------|

e)---------------|
b)---------------|
g)---------------|
D)---2-4p2-------|
A)-4-------4p2h4-|
E)---------------|

e)-------------|
b)-------------|
g)-6-4---------|
D)-----6-4-2---|
A)-----------4-|
E)-------------|

e)------------------|
b)----5-7-7b9p7-7b9-|
g)-/6---------------|
D)------------------|
A)------------------|
E)------------------|

e)-----------------------|
b)-7b9-9-9-9-9-9-9r7-5---|
g)---------------------6-|
D)-----------------------|
A)-----------------------|
E)-----------------------|

e)-------12p9-------12p9--------|
b)-12b14------12b14------12b14v-|
g)------------------------------|
D)------------------------------|
A)------------------------------|
E)------------------------------|

e)-14b16-16-16r14-14p12----|
b)----------------------14-|
g)-------------------------|
D)-------------------------|
A)-------------------------|
E)-------------------------|

e)----------------------------------|
b)-12p9------12p9-------------------|
g)------11p9------11p9--11p9------9-|
D)---------------------------11p9---|
A)----------------------------------|
E)----------------------------------|

e)--------------|
b)--------------|
g)-/6-4---------|
D)------6-4-2---|
A)------------4-|
E)--------------|

e)---------------------------------|
b)---------------------------------|
g)---------------------------------|
D)---------------------------------|
A)-7p4-4-4-4-4-4-4-7p4-4-7p4-4-7p4-|
E)---------------------------------|

e)---------------------------------|
b)---------------------------------|
g)-------------------------4-------|
D)-------------------------4-------|
A)-7p4-4-4-4-4-4-4-7p4-4-4-2-------|
E)---------------------------------|

e)---------------------------------|
b)---------------------------------|
g)---------------------------------|
D)---------------------------------|
A)-7p4-4-4-4-4-4-4-7p4-4-7p4-4-7p4-|
E)---------------------------------|

e)-------------------------------------------------|
b)-------------------------------------------------|
g)-------------------------------------------------|
D)-------------------------------------------------|
A)-7p4-4-4-4-4-4-4---/13-(PICKSLIDE DOWN E STRING)-|
E)-------------------------------------------------|

Now here I tabbed it so 2 guitars could be playing harmonized.  Sounds really cool with the backtrack.

Guitar One
e)-----------------------------------|
b)-----------------------------------|
g)-----------------------------------|
D)-----------------------------------|     x2
A)-4-6-7-9-7-6-7-4-6-7-6-4-6-2-4-2---|
E)---------------------------------4-|

e)-------------------------------------------------------------------------|
b)-------------------------------------------------------------------------|
g)-------------------------------------------------------------------------|
D)-------------------------------------------------------------------------|
A)-11-9-7-6-4-3-4--(SLIDE UP TO 13 PICK SLIDE DOWN ON E STRING SLIDE DOWN)-|
E)-------------------------------------------------------------------------|

Guitar Two
e)-----------------------------------|
b)-----------------------------------|
g)-----------------------------------|
D)-2-4-6-7-6-4-6-2-4-6-4-2-4-1-2-1---|     x2
A)---------------------------------3-|
E)-----------------------------------|

e)------------------------------------------------------------------------|
b)------------------------------------------------------------------------|
g)------------------------------------------------------------------------|
D)-9-7-6-4-2-1-2--(SLIDE UP TO 13 PICK SLIDE DOWN ON E STRING SLIDE DOWN)-|
A)------------------------------------------------------------------------|
E)------------------------------------------------------------------------|

e)-------------|
b)-------------|
g)-------------|
D)-----2h4p2---|
A)-2-4-------4-|
E)-------------|

e)-7-7-7-7------------------|
b)---------7b8-5---5---5----|
g)---------------6---6---6v-|
D)--------------------------|
A)--------------------------|
E)--------------------------|

e)-----------------|
b)-----------------|
g)-SATRIANI SCREAM-|  Bend down bar, then pinch harmonic on g string then
D)-----------------|  bring the bar back up.
A)-----------------|
E)-----------------|

e)------------------|
b)------------------|
g)-SOME WIERD THING-|  Bring down the bar at the same time you're running
D)----------------------|  your fingers up the neck to keep it on the same
A)----------------------|  note.
E)----------------------|

e)-T---I-----T-----|
b)--H---N-----H----|
g)---E---T-----I---|   The very first thing he does at the begining before
D)--------R-----N--|   the rythem of the song starts.
A)---------O-----G-|
E)-----------------|

e)----------------|
b)----------------|
g)-6v-8v-9v-5v-6v-|
D)----------------|
A)----------------|
E)----------------|

e)--------------------------------|
b)-11b(1/2)-11b(1/2)-11--------11-|
g)-11b(1/2)-11b(1/2)-11-9------11-|
D)------------------------11-9----|
A)--------------------------------|
E)--------------------------------|

e)--------------------------------|
b)-11b(1/2)-11b(1/2)-11-----------|
g)-11b(1/2)-11b(1/2)-11-9---------|
D)------------------------11-9-11-|
A)--------------------------------|
E)--------------------------------|

e)----------------------------|
b)----------------------------|
g)----------------------------|
D)-4-6--4-6--4-6--4-6--9--11--|
A)-4-4--4-4--4-4--4-6--7---9--|
E)----------------------------|

e)----------------------------|
b)----------------------------|
g)----------------------------|
D)-4-6--4-6--4-6--4-6--9--8---|
A)-4-4--4-4--4-4--4-6--7--6---|
E)----------------------------|

e)---------------------------------------------------|
b)---------------------------------------------------|
g)------------------------------------------------4--|
D)-4--6---4--6---4--6---4--6---9---11------4---2--2--|
A)-4--4---4--4---4--4---4--6---7----9---2--2---0-----|
E)--------------------------------------0------------|

e)----------------------------|
b)----------------------------|
g)----------------------------|
D)-4-6--4-6--4-6--4-6--9--11--|
A)-4-4--4-4--4-4--4-6--7---9--|
E)----------------------------|

e)----------------------------|
b)----------------------------|
g)----------------------------|
D)-4-6--4-6--4-6--4-6--9--8---|
A)-4-4--4-4--4-4--4-6--7--6---|
E)----------------------------|

e)---------------------------------------------------|
b)---------------------------------------------------|
g)------------------------------------------------4--|
D)-4--6---4--6---4--6---4--6---9---11------4---2--2--|
A)-4--4---4--4---4--4---4--6---7----9---2--2---0-----|
E)--------------------------------------0------------|

Guitar One
e)-----------------------------------|
b)-----------------------------------|
g)-----------------------------------|
D)-----------------------------------|     x6 or something
A)-4-6-7-9-7-6-7-4-6-7-6-4-6-2-4-2---|
E)---------------------------------4-|

Guitar Two
e)-----------------------------------|
b)-----------------------------------|
g)-----------------------------------|
D)-2-4-6-7-6-4-6-2-4-6-4-2-4-1-2-1---|     x6 or something
A)---------------------------------3-|
E)-----------------------------------|

e)------------------------------|
b)------------------------------|
g)------------------------------|
D)-4-6--4-6--4-6--4-6--9--11--6-|
A)-4-4--4-4--4-4--4-6--7---9--4-|
E)------------------------------|

I'm only 13 so sorry if the tab isn't perfect. Most of the tab my guitar teacher Joe Lathlin taught me.

In addition to Chords / Tabs Joe Satriani - Crowd Chant (Third Version), we offer an excerpt from a random book.No, it was dry fire, pure inspiration, without trying to defuse, waste, fulfill.

LiveInternet