AllChordsTabs.com

Joe Satriani - Ceremony (Third Version) Chords and Tabs


Artists:
Chords and Tabs » J » Joe Satriani - Ceremony (Third Version)

Joe Satriani - Ceremony (Third Version)

Joe Satriani - Ceremony (Third Version) Chords / Tabs

Joe Satriani - Ceremony Third Version: chords and tabs for the song. Watch chords and tablatures for all songs of the singer (group) Joe Satriani. Other chords and tabs for the "Ceremony" can find at the bottom of the page.

song    ceremony
album   crystal planet
artist  joe satriani


E|--|-||---------------------------------------------------------------
B|--|-||*--------------------------------------------------------------
G|--|-||---------------------------------------------------------------
D|--|-||--6--------6--------6----7--6-------6-------6-6--6--6--------6-
A|--|-||*-6h7p6----6h7p6----6h7--6--6h7p6---6h7p6---6-9--9--6h7p6----6h
E|--|-||--------9--------9----------------9-------9---7--7--------9----



1.           2.

E|-------------------------------|-----------||---------|--------------
B|-------------------------------|----------*||---------|--------------
G|-------------------------------|----4--4---||---------|--------------
D|--------6---6--6-----6---6-6-6-|-6--6--6---||-6--4--4-|----------2---
A|-7p6----6h7-7--7p6-6---6-4-4-4-|-4--2--2--*||-4--2--2-|--2h4-4-4---4-
E|-----9-------------------------|-----------||----0--0-|--------------





E|---------------------------------------------------------------------
B|---------------------------------------------------------------------
G|---------------------------------------------------------------------
D|-----------------------2----------------------------2----------------
A|-4-4-2-4--4~---2h4-4-4---4-4-4--4-2--2~-2-2-2h4-4-4---4-4-4-2-4-{4}--
E|---------------------------------------------------------------------





E|---------------------------------------------------------------------
B|---------------------------------------------------------------------
G|---------------------------------------------------------------------
D|-------------------------------------------6-------------------------
A|-4~---4-2-2-2-2-1-1-1-1------------6h7-7-7---7-7-7-6-7--7~---6h7-7-7-
E|------------------------4-4--4~--------------------------------------





E|---------------------------------------------------------------------
B|---------------------------------------------------------------------
G|---------------------------------------------------------------------
D|-6-----------------------------6-------------------------------------
A|---7-7-7--7--9-9b10--r-6h7-7-7---7-7-7-6-7--7~---7-6-6-6-64-4-4-4---
E|-------------------------------------------------------------------0-





E|--------|--------|----------------------------------------------------
B|--------|--------|----------------------------------------------------
G|--------|--------|-----9-11b13--11p9-11-9-----------------9-11b13--11-
D|--------|------x/|--11--------------------11-9-11~----11--------------
A|--------|-2h4--x/|----------------------------------------------------
E|--0-----|--------|----------------------------------------------------





E|----------------------------------------------------------------------
B|----------------------------------------------------------------------
G|----8b9--r----------9-11b13--11p9-11-9--------------------------------
D|----------11~----11--------------------11-9-11~---11~------9-11b13-11p
A|--------------------------------------------------------11------------
E|----------------------------------------------------------------------





E|-----------------------------------------------------------------------
B|-----------------------------------------------------------------------
G|----------------9-11b13--11p9-11-9--------------9-11b13--11--8b9--r----
D|-9-----------11--------------------11-9-11~--11---------------------11~
A|---11~-----------------------------------------------------------------
E|-----------------------------------------------------------------------





E|---------------------------------------------------------------------
B|---------------------------------------------------------------------
G|---------9-11b13--11p9--11-9-----------------------------------------
D|------11---------------------11-9-11~---9-11-11b13--11p9--9h11-11-11~
A|---------------------------------------------------------------------
E|---------------------------------------------------------------------





E|---------------------------------------------------------------------
B|---------------------------------------------------------------------
G|---11b13--11b13--r-p9------11b13--11b13--r-p9-------11b13--r-11~-----
D|----------------------11-9--------------------11-9-------------------
A|---------------------------------------------------------------------
E|---------------------------------------------------------------------





E|-----------9---------------------------------------------------------
B|----12--12-----------------------------------------------------------
G|-11-----------11b13--11b13--r-p9------11b13--11b13--r-p9-------11b13-
D|---------------------------------11-9--------------------11-9--------
A|---------------------------------------------------------------------
E|---------------------------------------------------------------------



rake

E|------------------------x--------------------------------------------
B|------------12b14---------x------------------------------------------
G|--r-11~---------------------x-----9-11b13--11p9-11-9---------------9-
D|-------------------------------11--------------------11-9-11~---11---
A|---------------------------------------------------------------------
E|---------------------------------------------------------------------





E|-------------------------------------------------------------------------
B|-------------------------------------------------------------------------
G|-11b13-11--8b9--r---------9-11b13--11p9-11-9-----------------------------
D|-----------------11~---11--------------------11-9-11~---11~---9-11-11b13-
A|-------------------------------------------------------------------------
E|-------------------------------------------------------------------------





E|------||----12p11p9-11---12p11p9-11---h12p11p9-11---12--12--12/14~---
B|------||-------------------------------------------------------------
G|------||-------------------------------------------------------------
D|-11p9-||-------------------------------------------------------------
A|------||-11----------------------------------------------------------
E|------||-------------------------------------------------------------





E|-12h14p11--12---11h12p119--11--9h11p97--9--9/11---4--4---b1-r-b1-r
B|---------------------------------------------------------------------
G|---------------------------------------------------------------------
D|---------------------------------------------------------------------
A|---------------------------------------------------------------------
E|---------------------------------------------------------------------





E|--b1-r-b1-r-4h5p4p2--4~---4--7p4---4---------------------------------
B|---------------------------------7---7p4-----------------------------
G|-----------------------------------------6b7--r-p4---6---4-----------
D|---------------------------------------------------6---6---6p4-------
A|---------------------------------------------------------------64p2-
E|---------------------------------------------------------------------





E|----------------------------------------------------------------/8-9-
B|----------------------------------------------------4--7-7/9-9-------
G|----------------2-4-2h4p21-1b2--r---1----------4h6------------------
D|------4-6-42-4--------------------2----/4---/6----------------------
A|--4-6----------------------------------------------------------------
E|---------------------------------------------------------------------





E|-11/14--14-14p11--14--/16-14-16/19--/21-||-2116-17p16p12----12-16-17p
B|----------------------------------------||----------------17----------
G|----------------------------------------||----------------------------
D|----------------------------------------||----------------------------
A|----------------------------------------||----------------------------
E|----------------------------------------||----------------------------





E|-16p12----12-16p17p12----12-16-17p16p12----12-16-17p16p12----12-16h17p
B|-------17-------------17----------------17----------------17----------
G|----------------------------------------------------------------------
D|----------------------------------------------------------------------
A|----------------------------------------------------------------------
E|----------------------------------------------------------------------





E|-16p12-17p12-16p12-17p12-16p12-17p12-16h17p16p12-16p12-14h16p14p12----
B|-------------------------------------------------------------------14h
G|----------------------------------------------------------------------
D|----------------------------------------------------------------------
A|----------------------------------------------------------------------
E|----------------------------------------------------------------------





E|-----------------------------------------------16h17p16p12-17p12-16-17p
B|-17-14h16p14p12h16p12h14p12h16p12h14p12h14p12--------------------------
G|-----------------------------------------------------------------------
D|-----------------------------------------------------------------------
A|-----------------------------------------------------------------------
E|-----------------------------------------------------------------------





E|-16p12-17p12--16-17p16p12----12-16h17p16p12----12-16-17p16p12----12-19p
B|--------------------------17----------------17----------------16-------
G|-----------------------------------------------------------------------
D|-----------------------------------------------------------------------
A|-----------------------------------------------------------------------
E|-----------------------------------------------------------------------





E|-12-19p12-19p12-17p12-17p12-16-17p16p12-16p12-14h16p14p1211h14-------
B|----------------------------------------------------------------14b16-
G|----------------------------------------------------------------------
D|----------------------------------------------------------------------
A|----------------------------------------------------------------------
E|----------------------------------------------------------------------





E|--------------------11h12-9-11p9-11p9----9h11p9------11h12p11p9------
B|--r-p12-14-149-----------------------12--------12p9------------12p9-
G|----------------9-8--------------------------------------------------
D|---------------------------------------------------------------------
A|---------------------------------------------------------------------
E|---------------------------------------------------------------------





E|---------------------------------------------------9h12p9----------9-
B|-12p10p9----9--------12p9------------------------9--------9-12b14----
G|---------11---11b13-------11b12--r-p9----9-11b13---------------------
D|--------------------------------------11-----------------------------
A|---------------------------------------------------------------------
E|---------------------------------------------------------------------





E|------12-14-----14----14----------------------------------------------
B|-12p9--------12----12----9h12p9-----------------9------------12-------
G|--------------------------------11b13--r-p9-------11b13~--------11b13-
D|--------------------------------------------11------------------------
A|----------------------------------------------------------------------
E|----------------------------------------------------------------------





E|---------------------------------------------------------------------
B|---------------------------------------------------------------------
G|----r-9----9-11-9----9-11-12--11p9----11----9------------------------
D|--------11--------11---------------11----11---11-9-------------------
A|----------------------------------------------------119-7-9--7------
E|----------------------------------------------------------------9-9--





E|--------||---------------------------||-------------------------9-9----
B|--------||*-------------------------*||-------------------12-12-----12-
G|--------||--11b13--11b13--r-p9-------||-11b13--r-11~---11--------------
D|--------||---------------------11-9--||--------------------------------
A|--------||*-------------------------*||--------------------------------
E|-7b9~---||---------------------------||--------------------------------





E-||---------------------------||---------------------9----9----9------
B-||*-------------------------*||------------------12---12---12----12-
G-||--11b13--11b13--r-p9-------||-11b13--r-11~--11-----------------11-
D-||---------------------11-9--||--------------------------------------
A-||*-------------------------*||--------------------------------------
E-||---------------------------||--------------------------------------





E|--||------------------------------------------------------------------
B|--||------------------------------------------------------------------
G|--||------------------------------------------------------------------
D|--||---------2---------------------------2--------------------------2-
A|--||-2h4-4-4---4-4-4-2-4~---4~---2h4-4-4---4-4-4-4-2-2~-----2h4-4-4---
E|--||------------------------------------------------------------------





E|---------------------------------------------------------------------
B|---------------------------------------------------------------------
G|---------------------------------------------------------------------
D|-----------------------------------------------------6---------------
A|-4-4-4-2-4~---4~---4-2-2-2-2-1-1-1-1---------6h7-7-7---7-7-7-6-7-7-7~
E|-------------------------------------4~-4~---------------------------





E|----------------------------------------------------------------------
B|----------------------------------------------------------------------
G|----------------------------------------------------------------------
D|----------------6---------------------------6-------------------------
A|---7~---6h7-7-7---7-7-7-7-9~---9~---6h7-7-7---7-7-7-6-7~---7~---7-6-6-
E|----------------------------------------------------------------------





E|---------------------------------------------------||---------------------
B|---------------------------------------------------||---------------12b14-
G|---------------------------------------------------||---------------------
D|---------------------------------------------------||-9h11-11-11~---------
A|-6-64-4-4-4-------2/4-4-4-4--4-4--4-4-4-4-4-4-4---||---------------------
E|-------------0-0---------------------------------0-||---------------------



semi-harm.

E|-----------------------14b16----r-p12---------12b--------------------
B|--12--12~-----------------------------14~-----------14-16b17--r14----
G|------------------------------------------------------------------16-
D|---------------------------------------------------------------------
A|---------------------------------------------------------------------
E|---------------------------------------------------------------------



grad. release

E|---------------------------------------------------------------------
B|-14-19-14----14~-------19b21--19-19-19-19-19-19-19-19-19----r--19-17-
G|----------16---------------------------------------------------------
D|---------------------------------------------------------------------
A|---------------------------------------------------------------------
E|---------------------------------------------------------------------





E|------------------------------------19-----------------19b21------21b23-
B|-19-19b21--r-p17-19-17-19-17-19b21------19--r-17-19-17------------------
G|------------------------------------------------------------------------
D|------------------------------------------------------------------------
A|------------------------------------------------------------------------
E|------------------------------------------------------------------------





E|--------------------------x---12-11-9-11~-9-------9-------------------
B|-----19b21------------------x---------------12b14---12p9--------------
G|---------------------------------------------------------11b13-9-11p9-
D|----------------------------------------------------------------------
A|----------------14----------------------------------------------------
E|--16---------------15-14----------------------------------------------





E|----------------------------------------------------------------------
B|-------------------9-9-12---------------------------------------------
G|-11~-------9-11b13--------11b12--r-p9-11-9b-----11----9~--------------
D|---------------------------------------------11----11----11-9---------
A|--------------------------------------------------------------11--97-
E|----------------------------------------------------------------------





E|----------------------------------------------0---0-----0-----0------
B|------------------------------------------------4---4-----4----------
G|------------------------------------------------------6-----6----6-6-
D|------9----9----9h11-11-11~------------------------------------------
A|-9/11---11---11------------------------------------------------------
E|------------------------------5/9--x--------------------------------





E|-----------0-----0-----0-----0-----------0-----0-----0-----0-----0---
B|-5---5-------4-----4-4---4-----4-----4-----4-----4-----4-----4-----4-
G|---6---6-6-----6-----------4-----4-6---6-----6-----6-----6-----6-----
D|---------------------------------------------------------------------
A|---------------------------------------------------------------------
E|---------------------------------------------------------------------





E|---0-------0---7-7-7-7-7-7-7----0-----0-----------------4---2---4p2---
B|-----4---------0-0-0-0-0-0-0------4-----4---5---------2---2---2-----2-
G|-6-----6-6---4-4-4-4-4-4-4-4--6-----6-----6---6-6-64-----------------
D|----------------------------------------------------------------------
A|----------------------------------------------------------------------
E|----------------------------------------------------------------------





E|-4p2---4p2---4p2--------------0-0-----0-----0-----0---------4-0-4-----
B|-----2-----2-------4----4---4-----4-----4-----4-------------------0---
G|-----------------6---6----6---------6-----4-----4---4-4-2-----------4-
D|----------------------------------------------------------2-----------
A|----------------------------------------------------------------------
E|----------------------------------------------------------------------





E|-4-----4-----4-------------12-12-12-12-12--12/16-12-------9--9--9----
B|---0-----0-----0-----9-9-9--9--9--9--9--9-----------------9--9--9----
G|-----4-----4-----2/9-------------------------------------------------
D|-----------------2/9---------------------------------/11-11-11-11-11-
A|---------------------------------------------------------------------
E|---------------------------------------------------------------------





E|-------12-12-12-12-12-12-12-12/16-----7-7-7-7-----12-12-12-12-12-12-12-
B|--------9--9--9--9--9--9--9-------9-7-7-7-7-7--/9--9--9--9--9--9--9--9-
G|-----------------------------------------------------------------------
D|-9---------------------------------------------------------------------
A|---11------------------------------------------------------------------
E|-----------------------------------------------------------------------





E|-12-12/16-----9-9-9-9------12-12-12-12---12-12-14-12-14-12-14-12-9---
B|--9-------9-9-9-9-9-9--9-9--9--9--9--9-0-12-12-12-12-12-12-12-12-9-9-
G|---------------------------------------------------------------------
D|---------------------------------------------------------------------
A|---------------------------------------------------------------------
E|---------------------------------------------------------------------





E|---12-12-12-12-12-12-12/16-----9-9-9-9-9-12-12-12-12-12-12-12-9-11-11-
B|-9--9--9--9--9--9--9-------9-9-9-9-9-9-9--9--9--9--9--9--9--9-9--9--9-
G|----------------------------------------------------------------------
D|----------------------------------------------------------------------
A|----------------------------------------------------------------------
E|----------------------------------------------------------------------





E|-11-11-11-11---12-12-12-12-12-12-12-12-12/16-----9-9-9-9--9-12-9----9-
B|--9--9--9--9-9--9--9--9--9--9--9--9--9-------9-9-9-9-9-9--9-12-9-12-9-
G|-----------------------------------------------------------------11---
D|----------------------------------------------------------------------
A|----------------------------------------------------------------------
E|----------------------------------------------------------------------





E|-9-9------12-12-------------------------------------------------------
B|-9-9-9-----9--9----9-9------------------------------------------------
G|-------11-------11-9-9-11p9-11p9-9-11-x-x-----------------------------
D|-----------------------11p9-11p9-9-11-x-x-----------------------------
A|--------------------------------------------------2h4-4-4-0h4-4-4-2h4-
E|------------------------------------------12-------------------------





E|---------------------------------------------------------------------
B|---------------------------------------------------------------------
G|---------------------------------------------------------------------
D|-------------------2---------------------------------2---------------
A|-4-4-4-4-4-2h4-4-4---4-4-4-4/6-6-6-6-6-6-6-6-2h4-4-4---4-4-4-2h4-4-4-
E|---------------------------------------------------------------------





E|---------------------------------------------------------------------
B|---------------------------------------------------------------------
G|---------------------------------------------------------------------
D|-------------2-------2-4-4-4-4/6-6-6-6-6-6-6---------2---------------
A|-4-4-2h4-4-4---4-4-4-------------------------2h4-4-4---4-4-4-2h4-4-4-
E|---------------------------------------------------------------------



Fade out

E|---------------------------------------*|-
B|---------------------------------------*|-
G|---------------------------------------*|-
D|---------------2-----------------------*|-
A|-4-4-4-2h4-4-4---4-4-4-4/6-7-6-7-6-7-6-*|-
E|---------------------------------------*|-

In addition to Chords / Tabs Joe Satriani - Ceremony (Third Version), we offer an excerpt from a random book.(The black sail of Theseus, the black sail of Tristan, I know: I do not know both.) - You saw them from afar. "

LiveInternet