AllChordsTabs.com

Less Than Jake - Accept (First Version) Chords and Tabs


Artists:
Chords and Tabs » L » Less Than Jake - Accept (First Version)

Less Than Jake - Accept (First Version)

Less Than Jake - Accept (First Version) Chords / Tabs

Less Than Jake - Accept First Version: chords and tabs for the song. Watch chords and tablatures for all songs of the singer (group) Less Than Jake. Other chords and tabs for the "Accept" can find at the bottom of the page.

ACCEPT - Jake

|--| = no music
~ = play once, let ring
_ = play once, do not let ring

Riff 1:
Bass arranged for guitar
e-|-----------------|                    |---------|
b-|-----------------|                    |---------|
G-|-----------------| play 3 times, then |---------|
D-|-----------------|                    |---------|
A-|--3--------------|                    |---------|
E-|----3-5-3-5-3----|                    |--5-3-1--|


C~                    F~
it just seems so much ***ing easier

G~           A~
to hate than to accept  [Riff 1]

A           F           A
and you can do what you want

A       F             A
you can feel what you want

B       C      D        |--|A_  G_F_
except if it offends the ma-jor-i-ty

B     C  D   |--|A_  G_   F_
makes us feel un-com-fort-able

chorus;

A_A_
well-

G_   F_
*** you,

F               G               A
you're not helping, you're just lazy

A_A_  G                    F       G    F
your selfishness makes our world hazy


Solo (sorta):

just play each chord a whole bunch of times, go crazy
e-|--------------|                    |--------------|
b-|--------------|                    |--------------|
G-|--------------| play 3 times, then |--------------|
D-|--5--8--7--3--|                    |--7--6--7-----|
A-|--3--6--5--1--|                    |--5--4--5-----|
E-|--------------|                    |--------------|

Solo (maybe instead of the one above, im not sure if it'll go along with
it, or just take its place)
Play very fast, up and down

e-|-------------------------------------------------------------------|
b-|--5-5-5-5-8-8-8-8-3-3-3-3-5-5-5-5-5-5-5-5-8-8-8-8-3-3-3-3-7-7-7-7--|
G-|-------------------------------------------------------------------|
D-|-------------------------------------------------------------------|
A-|-------------------------------------------------------------------|
E-|-------------------------------------------------------------------|
play twice, then:
e-|---------------------------------------|
b-|--5-5-5-5-3-3-3-3-5-5-5-5-8-8-7-7-5-3--|
G-|---------------------------------------|
D-|---------------------------------------|
A-|---------------------------------------|
E-|---------------------------------------|

Guitar in backround might be doing something like this:
e-|-----------------------------------------------|
b-|-----------------------------------------------|
G-|-----------------------------------------------|
D-|--7-7-7-7--5-5-5-5--7-7-7-7--8-8-8-8--7-7-7-7--| repeat for entirety
A-|--7-7-7-7--5-5-5-5--7-7-7-7--8-8-8-8--7-7-7-7--| solo.
E-|--5-5-5-5--3-3-3-3--5-5-5-5--6-6-6-6--5-5-5-5--|

List of chords used, and how to play them:
A: D-|-7           F: D-|-3           C: G-|-5         G: D-|-5
A-|-7              A-|-3              D-|-5            A-|-5
E-|-5              E-|-1              A-|-3            E-|-3

*More of this song to come, when I'm done writing it,
still gotta work on 3rd, 4th, maybe 5th verses! Stay Tuned!

In addition to Chords / Tabs Less Than Jake - Accept (First Version), we offer an excerpt from a random book.having enslaved nature, he himself is enslaved by the instrument of enslavement - the machine: steel, iron, nature.

LiveInternet