AllChordsTabs.com

Marilyn Manson - ***Ty Chicken Gang Bang (First Version) Chords and Tabs


Artists:
Chords and Tabs » M » Marilyn Manson - ***Ty Chicken Gang Bang (First Version)

Marilyn Manson - ***Ty Chicken Gang Bang (First Version)

Marilyn Manson - ***Ty Chicken Gang Bang (First Version) Chords / Tabs

Marilyn Manson - ***Ty Chicken Gang Bang First Version: chords and tabs for the song. Watch chords and tablatures for all songs of the singer (group) Marilyn Manson. Other chords and tabs for the "***Ty Chicken Gang Bang" can find at the bottom of the page.

abcdefghijklmnopqrstuvwxyz




***ty Chicken Gang Bang

Normal Tuning (EADGBe)



Time Key: (4/4 time)
e=eighth note
dq=dotted quarter note
q=quarter note
h=half note
w=whole note
t=tie
er=8th note rest
qr=quarter rest
hr=half rest
wr=whole rest
/--t
/ /-|-t
Guitar One:                           / /  | |
e e e e e e e e   q dq er qr   qr q h   w w   wr

e|-----------------|------------|----0---|-0---|----|
B|---0-------------|------------|------3-|---3-|----|
G|-----3---2-1---0-|------------|--------|-----|----|
D|-0-----2-----3---|-4-1--------|--------|-----|----|
A|-----------------|------------|--------|-----|----|
E|-----------------|------------|--------|-----|----|

Measure #        1 |          2 |      3 |   4 |  5 |

Alright, for measures 3 and 4, the notes in the 3rd measure are
tied to whole notes in the 4th measure.  The order is:

1 2 3 4(5 times)
1 2 5 5 (2 times)

Guitar Two:     /-t               /t
/  |              / |
wr   hr dq e   q e e q q   dq e h

e|----|-------0-|-0-1-3-2---|-3--0-0-|
B|----|----3----|---------4-|--------|
G|----|---------|-----------|--------|
D|----|---------|-----------|--------|
A|----|---------|-----------|--------|
E|----|---------|-----------|--------|

Just play through all of the measures 7 times.  Look at the
end of the file to see how to split guitars one and two into one guitar.
Guitar Three:
(all octave chords)
wr   wr   hr  e e e e   e e e e q q

e|----|----|-------3-2---|-5-4---3-----|
B|----|----|-----1-----5-|-----6---7-4-|
G|----|----|-------4-3---|-2-1---0-----|
D|----|----|-----0-----2-|-----3---4-1-|
A|----|----|-------------|-------------|
E|----|----|-------------|-------------|

Just play through all of the measures 7 times.

Bass:
dq dq e e   q dq er qr   wr   wr
e|-----------|------------|----|----|
B|-----------|------------|----|----|
G|-----------|------------|----|----|
D|-------0-2-|-1----------|----|----|
A|-2--3------|---2--------|----|----|
E|-----------|------------|----|----|

Just play through all of the measures 7 times.

/-t               /t
Split Track:                  /  |              / |
e e e e e e e e   q dq dq e   q e e q q   dq e h

e|-----------------|---------0-|-0-1-3-2---|--3-0-0-|
B|---0-------------|------3----|---------4-|--------|
G|-----3---2-1---0-|-----------|-----------|--------|
D|-0-----2-----3---|-4-1-------|-----------|--------|
A|-----------------|-----------|-----------|--------|
E|-----------------|-----------|-----------|--------|

In addition to Chords / Tabs Marilyn Manson - ***Ty Chicken Gang Bang (First Version), we offer an excerpt from a random book.But from time to time they looked at each other meaningfully, as if they understood each other without words.

LiveInternet