AllChordsTabs.com

Mark Knopfler - Altamira (First Version) Chords and Tabs


Artists:
Chords and Tabs » M » Mark Knopfler - Altamira (First Version)

Mark Knopfler - Altamira (First Version)

Mark Knopfler - Altamira (First Version) Chords / Tabs

Mark Knopfler - Altamira First Version: chords and tabs for the song. Watch chords and tablatures for all songs of the singer (group) Mark Knopfler. Other chords and tabs for the "Altamira" can find at the bottom of the page.

[Instrumental]
e|---------------------------------------------5------------|
B|---------------8/10------8------------5~----8-8--5--------|
G|--7h9-10~-----7------10-9---------5h7---------------7-----|
D|-7------------------------10-----5------------------------|
A|----------------------------------------------------------|
E|----------------------------------------------------------|

e|---------------------------------------------5------------|
B|---------------8/10------8------------5~----8-8--5--------|
G|--7h9-10~-----7------10-9---------5h7---------------7-----|
D|-7------------------------10-----5------------------------|
A|----------------------------------------------------------|
E|----------------------------------------------------------|

e|---------------------------------------------5------------|
B|---------------8/10------8------------5~----8-8--5--------|
G|--7h9-10~-----7------10-9---------5h7---------------7-----|
D|-7------------------------10-----5------------------------|
A|----------------------------------------------------------|
E|----------------------------------------------------------|

e|---------------------------------------------5------------|
B|---------------8/10------8------------5~----8-8--5--------|
G|--7h9-10~-----7------10-9---------5h7---------------7-----|
D|-7------------------------10-----5------------------------|
A|----------------------------------------------------------|
E|----------------------------------------------------------|

1:09

e|-3-3p1p0-3-3p1p0h1-----3--------------|
B|-3------3---------3---3---------------|
G|-2-------------------0----------------|
D|-0------------------2-----------------|
A|-1------------------------------------|
E|-0------------------------------------|

e|-3-3p1p0-3-3p1p0h1--------------------|
B|-3------3---------3---------3-3/5-----|
G|-2------------------------------------|
D|-0------------------------------------|
A|-1------------------------------------|
E|-0------------------------------------|

1:26                    easier Knoplfer plays like intro
e|---------------------------------------------5------------|
B|---------------8/10--6-5-8------------5~----8-8--5--------|
G|--7h9-10~-----7------------5------5h7---------------7-----|
D|-7-------------------------------5------------------------|
A|----------------------------------------------------------|
E|----------------------------------------------------------|

1:43
e|-------------------------------------------------|
B|10--10--10 11-11--8-8-10-10--6-6-8-8---5-5h6p5---|
G|7---7---7--7--7---7-7--7--7--5-5-5-5----------7--|
D|-------------------------------------------------|
A|-------------------------------------------------|
E|-------------------------------------------------|

e|--------------------------------------------------------|
B|10--10--10 11-11--8-8-10-10--6-6-8-8---5-5h6p5---5-5hp5-|
G|7---7---7--7--7---7-7--7--7--5-5-5-5----------7--------7|
D|--------------------------------------------------------|
A|--------------------------------------------------------|
E|--------------------------------------------------------|

e|-------------------------------------------------|
B|10--10--10 11-11--8-8-10-10--6-6-8-8---5-5h6p5---|
G|7---7---7--7--7---7-7--7--7--5-5-5-5----------7--|
D|-------------------------------------------------|
A|-------------------------------------------------|
E|-------------------------------------------------|

e|--------------------------------------------------------|
B|10--10--10 11-11--8-8-10-10--6-6-8-8--5-5h6p5----5-5hp5-|
G|7---7---7--7--7---7-7--7--7--5-5-5-5----------7--------7|
D|--------------------------------------------------------|
A|--------------------------------------------------------|
E|--------------------------------------------------------|
2:38 - to end
e|-----------------------------------------0--------|
B|-----------------------------------------3--------|
G|-2------------4-2-2-------------4-2------0--------|
D|--5-4-2--2-4-5-----5-4-2---2-4-5---------2--------|
A|-------5-----------------5------------------------|
E|--------------------------------------------------|

In addition to Chords / Tabs Mark Knopfler - Altamira (First Version), we offer an excerpt from a random book.Sometimes it was a cowboy movie; sometimes it was a real action movie - people were running everywhere.

LiveInternet