AllChordsTabs.com

Marillion - Emerald Lies (First Version) Chords and Tabs


Artists:
Chords and Tabs » M » Marillion - Emerald Lies (First Version)

Marillion - Emerald Lies (First Version)

Marillion - Emerald Lies (First Version) Chords / Tabs

Marillion - Emerald Lies First Version: chords and tabs for the song. Watch chords and tablatures for all songs of the singer (group) Marillion. Other chords and tabs for the "Emerald Lies" can find at the bottom of the page.

Artist - Marillion
********************
Song - Emerald Lies
*********************
Album - Fugazi
****************
**********************


Intro
******
Drums
******
Keyboards
**********

---------------------------------------------------------------------------
b  br
[--b---14-14-12---b---s-|-----------------|-------------]
[-15-------------15-15-|--b--------------|-------------]
[-----------------------|-14--14-12-11----|-------12----]
[-----------------------|--------------14-|-12-------14-]
[-----------------------|-----------------|----14-------]
[-----------------------|-----------------|-------------]

UB
[--------------------|-------------------11-12-|-17~-~-~-~-]
[------h-----p----12-|--------15--b------------|-----------]
[-11-11-12-12-11--14-|-14--12----14--14--------|-----------]
[--------------------|-------------------------|-----------]
[--------------------|-------------------------|-----------]
[--------------------|-------------------------|-----------]

---------------------------------------------------------------------------
00:41
Vocals come in do this picking through vocals
Acoustic Picking
*****************

To be the prince of   possession      in the gallery
of               contempt   Suffering your
indiscreet        discretions   and you
ask  me     to    relent        As you
[-------------0-----|------------1-0---]
[------3--------3---|------3---------3-]
[----2---2-3------2-|----2---2-3-------]
[--0----------------|--0---------------]
[-------------------|------------------]
[-------------------|------------------]X4


accumulate     flirtations     with the calculated calmness of the whore

Dm                 G               C               Am
[-------1----------|---------0-----|---------0-----|---------0-]
[-----3---3--------|-------3---3---|-------3---3---|-------1---]
[---2-------2---2--|-----0-------0-|-----0-------0-|-----2-----]
[-0-----------0----|---0-----------|---2-----------|---2-------]
[------------------|---------------|-3-------------|-0---------]
[------------------|-3-------------|---------------|-----------]
Dm
of the whore        I    I    I    I    I    I
am the  harlequin                diamonded costume dripping shades of green

[-------------0-----|------------1-0---|------------0-----|----------1--]
[------3--------3---|------3---------3-|-----3--------3---|-----3----3--]
[----2---2-3------2-|----2---2-3-------|---2---2-3------2-|---2---2--2--]
[--0----------------|--0---------------|-0----------------|-0--------0--]
[-------------------|------------------|------------------|-------------]
[-------------------|------------------|------------------|-------------]


I  am  the harlequin                        sense
strangers violate my sanctuary
[-------------0-----|------------1-0---]
[------3--------3---|------3---------3-]
[----2---2-3------2-|----2---2-3-------]
[--0----------------|--0---------------]
[-------------------|------------------]
[-------------------|------------------]


Prowl my dreams             And there my dreams    There my dreams
Dm                 G               C               Am
[-------1----------|---------0-----|---------0-----|---------0-]
[-----3---3--------|-------3---3---|-------3---3---|-------1---]
[---2-------2---2--|-----0-------0-|-----0-------0-|-----2-----]
[-0-----------0----|---0-----------|---2-----------|---2-------]
[------------------|---------------|-3-------------|-0---------]
[------------------|-3-------------|---------------|-----------]



---------------------------------------------------------------------------
02:14
Keyboards - D
**********
---------------------------------------------------------------------------
Verse
******
D
Plundering your diaries, I'll steal your thoughts innocence
02:40
Heavy guitar comes in
E        C       E       F
Ravaging your letters, unearth your plots innocence
E                       C
To don the robes of Torquemada, resurrect the inquisition   03:00
E                              F                E   Small solo
In that tortured subtle manner inflict questions within questions

Guitar 1 - E      C      E      F      E       C      E      F
Guitar 2 -    UB            UB            UB            UB
[-------------12------------17-------|----12--------------s--------]
[-------------15------------20-------|----15------------10--------]
[------------------------------------|------------------12--------]
[------------------------------------|-----------------------------]
[------------------------------------|-----------------------------]
[------------------------------------|-----------------------------]

03:00
Small solo
[-UB--------------|-------------|-------------------]
[-12--------------|-------------|---------h--p------]
[-14--14-12-11----|-------12----|-11-12-11-12-11----]
[--------------14-|-12-------14-|----------------14-]
[-----------------|----14-------|-------------------]
[-----------------|-------------|-------------------]

---------------------------------------------------------------------------
E                                            C
Looking in shades of green through shades of blue
E                        F
I trust you trust in me to mistrust you
E                    C
Through the Silk Cut haze to the smeared mascara
E                F
A 40 watt sun on a courtroom drama

Guitar 1 - E      C      E      F      E       C      E      F
Guitar 2 -    UB            UB            UB            UB
[-------------12--------------s-----------12------------17-----]
[-------------15------------10-----------15------------20-----]
[---------------------------12--------------------------------]
[--------------------------------------------------------------]
[--------------------------------------------------------------]
[--------------------------------------------------------------]


--------------------------------------------------------------------------
03:36  Sm guitar
Solo comes in here
E                                        C
And the coffee stains gather till the pale kimono
F                            A
Set the wedding rings dancing on the cold linoleum

03:36
[-0------------------------------]
[---1------------------------5-6-]
[---------------------s--5-7-----]
[------------------3-57---------]
[----------s--3-5----------------]
[-----1-1-35--------------------]


--------------------------------------------------------------------------
03:44 - play guitar notes below, with with this part of the song
D   E   A   F
This is innocence
D   E   A

03:44
[----------------|------b-r-b-r--7---------------]
[----------------|-----9-----------9-10--10------]
[----7-----------|---7----------------------10-9-]
[------6-7-7-----|-------------------------------]
[--5---------8-7-|-5-----------------------------]
[----------------|-------------------------------]       Play these 2 parts
through the rest of
the song. listen
[----------------|------b-r-b-r--7---------------------] for the order
[----------------|-----9-----------9-10--10----10-13---] because he changes
[----7-----------|---7----------------------10-------9-] it throughout.
[------6-7-7-----|-------------------------------------]
[--5---------8-7-|-5-----------------------------------]
[----------------|-------------------------------------]

F       D                  E             A
And accusations moths that circle on the light
F              D                E            A
In char their wings and spiral senseless suicidal flight
F                D              E                   A             F
You packed your world within a suitcase, hot tears melt this icy palace
D               E                A        F
Dissolve a crystal swallowed by the night
D                    E                       A      F
Looking in shades of green through shades of blue
D                    E                       A      F               D
Looking in shades of green through shades of blue      These shades of blue

04:43               Slow down
E        A   F   E   D
b
[---10--b-r-b-r------------------------]
[------9--------10---------------------]
[-7----------------10---9---7--7-------]
[---------------------------------7----]
[------------------------------------5-]
[--------------------------------------]


A great Marillion track. Enjoy .................

In addition to Chords / Tabs Marillion - Emerald Lies (First Version), we offer an excerpt from a random book.It became a vital part of my self-expression and allowed me to work on tight deadlines.

LiveInternet