AllChordsTabs.com

Linkin Park - Battle Symphony (First Version) Chords and Tabs


Artists:
Chords and Tabs » L » Linkin Park - Battle Symphony (First Version)

Linkin Park - Battle Symphony (First Version)

Linkin Park - Battle Symphony (First Version) Chords / Tabs

Linkin Park - Battle Symphony First Version: chords and tabs for the song. Watch chords and tablatures for all songs of the singer (group) Linkin Park. Other chords and tabs for the "Battle Symphony " can find at the bottom of the page.

(No guitar in first part of intro)

[Intro Part 2]
(Guitar 1)
E|-------------------------------------------------------------------------------------------------|
B|-------------------------------------------------------------------------------------------------|
G|-------------------------------------------------------------------------------------------------|
D|-8-----8-----------------1-----1-----------------5-----5-----------------3-----3-----------------|
A|-8-----8-----------------1-----1-----------------5-----5-----------------3-----3-----------------|
D|-8-----8-----------------1-----1-----------------5-----5-----------------3-----3-----------------| (x2)

(Guitar 2)
E|-------------------------------------------------------------------------------------------------|
B|-------------------------------------------------------------------------------------------------|
G|-7--x--x--7-----x--7--x--------------------------------------------------------------------------|
D|-------------------------5--x--x--5-----x--5--x--8--x--x--8-----x--8--x--7--x--x--7-----x--7--x--|
A|-------------------------------------------------------------------------------------------------|
D|-------------------------------------------------------------------------------------------------| (x2)

(No guitar in verse, pre-chorus, or first part of Chorus)

[Chorus Part 2]
(Guitar 1)
E|-------------------------------------------------------------------------------------------------|
B|-------------------------------------------------------------------------------------------------|
G|-12----12----12-12-12-12-12----12----12-12-12-12-10----10----10-10-10-10-10----10----10-10-10-10-|
D|-x-----x-----x--x--x--x--x-----x-----x--x--x--x--x-----x-----x--x--x--x--x-----x-----x--x--x--x--|
A|-10----10----10-10-10-10-10----10----10-10-10-10-8-----8-----8--8--8--8--8-----8-----8--8--8--8--|
D|-------------------------------------------------------------------------------------------------|

E|-------------------------------------------------------------------------------------------------|
B|-------------------------------------------------------------------------------------------------|
G|-12----12----12-12-12-12-12----12----12-12-12-12-10----10----10-10-10-10-------------------------|
D|-x-----x-----x--x--x--x--x-----x-----x--x--x--x--x-----x-----x--x--x--x--------------------------|
A|-10----10----10-10-10-10-10----10----10-10-10-10-8-----8-----8--8--8--8--------------------------|
D|-------------------------------------------------------------------------------------------------|

(Guitar 2)
E|-------------------------------------------------------------------------------------------------|
B|-------------------------------------------------------------------------------------------------|
G|-7--x--x--7-----x--7--x--------------------------------------------------------------------------|
D|-------------------------5--x--x--5-----x--5--x--8--x--x--8-----x--8--x--7--x--x--7-----x--7--x--|
A|-------------------------------------------------------------------------------------------------|
D|-------------------------------------------------------------------------------------------------|

E|-------------------------------------------------------------------------------------------------|
B|-------------------------------------------------------------------------------------------------|
G|-7--x--x--7-----x--7--x--------------------------------------------------------------------------|
D|-------------------------5--x--x--5-----x--5--x--8--x--x--8-----x--8--x--------------------------|
A|-------------------------------------------------------------------------------------------------|
D|-------------------------------------------------------------------------------------------------|

[Post-Chorus]
(Guitar 1)
E|-------------------------------------------------------------------------------------------------|
B|-------------------------------------------------------------------------------------------------|
G|-------------------------------------------------------------------------------------------------|
D|-8-----8-----------------1-----1-----------------5-----5-----------------3-----3-----------------|
A|-8-----8-----------------1-----1-----------------5-----5-----------------3-----3-----------------|
D|-8-----8-----------------1-----1-----------------5-----5-----------------3-----3-----------------| (x2)

(Guitar 2)
E|-------------------------------------------------------------------------------------------------|
B|-------------------------------------------------------------------------------------------------|
G|-7--x--x--7-----x--7--x--------------------------------------------------------------------------|
D|-------------------------5--x--x--5-----x--5--x--8--x--x--8-----x--8--x--7--x--x--7-----x--7--x--|
A|-------------------------------------------------------------------------------------------------|
D|-------------------------------------------------------------------------------------------------| (x2)

[Verse 2]
(Guitar 1)
E|-------------------------------------------------------------------------------------------------|
B|-------------------------------------------------------------------------------------------------|
G|----------------------------------------------------------------------------------------------10-|
D|-------------------------------------------------------------------------------------------------|
A|-------------------------------------------------------------------------------------------------|
D|-------------------------------------------------------------------------------------------------|

E|-------------------------------------------------------------------------------------------------|
B|-------------------------------------------------------------------------------------------------|
G|(10~)--------------------------------------------------------------------------------------------|
D|-12~---------------------------------------------------------------------------------------------|
A|-------------------------------------------------------------------------------------------------|
D|-------------------------------------------------------------------------------------------------|

[Pre-Chorus]
(Guitar 1)
E|-------------------------------------------------|
B|-------------------------------------------------|
G|-10~--------------------------------------(x)----|
D|-------------------------------------------------|
A|-------------------------------------------------|
D|-------------------------------------------------|

[Chorus]
(Guitar 1)
E|-------------------------------------------------------------------------------------------------|
B|-------------------------------------------------------------------------------------------------|
G|-------------------------------------------------------------------------------------------------|
D|-5-----5-----------------1-----1-----------------8-----8-----------------3-----3-----------------|
A|-5-----5-----------------1-----1-----------------8-----8-----------------3-----3-----------------|
D|-5-----5-----------------1-----1-----------------8-----8-----------------3-----3-----------------| (x4)

(Guitar 2) (x2)
E|-------------------------------------------------------------------------------------------------|
B|-------------------------------------------------------------------------------------------------|
G|-------------12-12-12-12-------------12-12-12-12-------------10-10-10-10-------------10-10-10-10-|
D|-------------x--x--x--x--------------x--x--x--x--------------x--x--x--x--------------x--x--x--x--|
A|-------------10-10-10-10-------------10-10-10-10-------------8--8--8--8--------------8--8--8--8--|
D|-------------------------------------------------------------------------------------------------|

E|-------------------------------------------------------------------------------------------------|
B|-------------------------------------------------------------------------------------------------|
G|-------------12-12-12-12-------------12-12-12-12-------------10-10-10-10-10-10-10-10-10-10-10-10-|
D|-------------x--x--x--x--------------x--x--x--x--------------x--x--x--x--x--x--x--x--x--x--x--x--|
A|-------------10-10-10-10-------------10-10-10-10-------------8--8--8--8--8--8--8--8--8--8--8--8--|
D|-------------------------------------------------------------------------------------------------|

(Guitar 3)
E|-------------------------------------------------------6--------6--------------5--------5--------|
B|-------------------------------------------------3-----------3-----3-----------------------------|
G|-------------------------------------------------------------------------5-----------5-----5-----|
D|-------------------------------------------------------------------------------------------------|
A|-------------------------------------------------------------------------------------------------|
D|-------------------------------------------------------------------------------------------------|

[Bridge]
(Guitar 1)
E|-------------------------------------------------------------------------------------------------|
B|-------------------------------------------------------------------------------------------------|
G|-8-----8-----8--8--8--8--8-----8-----8--8--8--8--7-----7-----7--7--7--7--5-----5-----5--5--5--5--|
D|-x-----x-----x--x--x--x--x-----x-----x--x--x--x--x-----x-----x--x--x--x--x-----x-----x--x--x--x--|
A|-6-----6-----6--6--6--6--6-----6-----6--6--6--6--5-----5-----5--5--5--5--3-----3-----3--3--3--3--|
D|-------------------------------------------------------------------------------------------------| (x2)

E|-------------------------------------------------------------------------|
B|-------------------------------------------------------------------------|
G|-8-----8-----8--8--8--8--5-----5-----5--5--5--5--------------------------|
D|-x-----x-----x--x--x--x--x-----x-----x--x--x--x--------------------------|
A|-6-----6-----6--6--6--6--3-----3-----3--3--3--3--------------------------|
D|-------------------------------------------------------------------------|

(Guitar 2)
E|-------------------------------------------------------------------------------------------------|
B|-------------------------------------------------------------------------------------------------|
G|-12----12----12-12-12-12-12----12----12-12-12-12-12----12----12-12-12-12-10----10----10-10-10-10-|
D|-x-----x-----x--x--x--x--x-----x-----x--x--x--x--x-----x-----x--x--x--x--x-----x-----x--x--x--x--|
A|-10----10----10-10-10-10-10----10----10-10-10-10-10----10----10-10-10-10-8-----8-----8--8--8--8--|
D|-------------------------------------------------------------------------------------------------| (x2)

E|-------------------------------------------------------------------------|
B|-------------------------------------------------------------------------|
G|-12----12----12-12-12-12-10----10----10-10-10-10-------------------------|
D|-x-----x-----x--x--x--x--x-----x-----x--x--x--x--------------------------|
A|-10----10----10-10-10-10-8-----8-----8--8--8--8--------------------------|
D|-------------------------------------------------------------------------|

(Guitar 3)
E|-------6--------6--------------6--------6--------------6--------6--------------5--------5--------|
B|-4-----------4-----4-----4-----------4-----4-----3-----------3-----3-----------------------------|
G|-------------------------------------------------------------------------5-----------5-----5-----|
D|-------------------------------------------------------------------------------------------------|
A|-------------------------------------------------------------------------------------------------|
D|-------------------------------------------------------------------------------------------------| (x2)

E|-------6--------6--------------5--------5--------------------------------|
B|-------------------------5-----------5-----5-----------------------------|
G|-------------------------------------------------------------------------|
D|-------------------------------------------------------------------------|
A|-------------------------------------------------------------------------|
D|-------------------------------------------------------------------------|

(No guitar in first part of final chorus)

[Final Chorus Part 2]
(Guitar 2)
E|-------------------------------------------------------------------------------------------------|
B|-------------------------------------------------------------------------------------------------|
G|-------------12-12-12-12-------------12-12-12-12-------------10-10-10-10-------------10-10-10-10-|
D|-------------x--x--x--x--------------x--x--x--x--------------x--x--x--x--------------x--x--x--x--|
A|-------------10-10-10-10-------------10-10-10-10-------------8--8--8--8--------------8--8--8--8--|
D|-------------------------------------------------------------------------------------------------|

E|-------------------------------------------------------------------------------------------------|
B|-------------------------------------------------------------------------------------------------|
G|-------------12-12-12-12-------------12-12-12-12-------------10-10-10-10-10-10-10-10-10-10-10-10-|
D|-------------x--x--x--x--------------x--x--x--x--------------x--x--x--x--x--x--x--x--x--x--x--x--|
A|-------------10-10-10-10-------------10-10-10-10-------------8--8--8--8--8--8--8--8--8--8--8--8--|
D|-------------------------------------------------------------------------------------------------|

(Guitar 3)
E|-------6--------6--------------6--------6--------------6--------6--------------5--------5--------|
B|-3-----------3-----3-----4-----------4-----4-----3-----------3-----3-----------------------------|
G|-------------------------------------------------------------------------5-----------5-----5-----|
D|-------------------------------------------------------------------------------------------------|
A|-------------------------------------------------------------------------------------------------|
D|-------------------------------------------------------------------------------------------------| (x2)

[Outro]
(Guitar 2)
E|-------------------------------------------------------------------------------------------------|
B|-------------------------------------------------------------------------------------------------|
G|-------------10-10-10-10-------------12-12-12-12-------------12-12-12-12-------------10-10-10-10-|
D|-------------x--x--x--x--------------x--x--x--x--------------x--x--x--x--------------x--x--x--x--|
A|-------------8--8--8--8--------------10-10-10-10-------------10-10-10-10-------------8--8--8--8--|
D|-------------------------------------------------------------------------------------------------|

E|-------------------------------------------------------------------------------------------------|
B|-------------------------------------------------------------------------------------------------|
G|-------------10-10-10-10-------------12-12-12-12-------------12-12-12-12-10-10-10-10-10-10-10-10-|
D|-------------x--x--x--x--------------x--x--x--x--------------x--x--x--x--x--x--x--x--x--x--x--x--|
A|-------------8--8--8--8--------------10-10-10-10-------------10-10-10-10-8--8--8--8--8--8--8--8--|
D|-------------------------------------------------------------------------------------------------|

(Guitar 3)
E|-------6--------6--------------6--------6--------------6--------6--------------5--------5--------|
B|-3-----------3-----3-----4-----------4-----4-----3-----------3-----3-----------------------------|
G|-------------------------------------------------------------------------5-----------5-----5-----|
D|-------------------------------------------------------------------------------------------------|
A|-------------------------------------------------------------------------------------------------|
D|-------------------------------------------------------------------------------------------------| (x2)

In addition to Chords / Tabs Linkin Park - Battle Symphony (First Version), we offer an excerpt from a random book.Loves not only experimenters like Schoenberg and Brocade, but also simple Tin Pan Alley tunes.

LiveInternet