AllChordsTabs.com

Maroon 5 - Take What You Can (First Version) Chords and Tabs


Artists:
Chords and Tabs » M » Maroon 5 - Take What You Can (First Version)

Maroon 5 - Take What You Can (First Version)

Maroon 5 - Take What You Can (First Version) Chords / Tabs

Maroon 5 - Take What You Can First Version: chords and tabs for the song. Watch chords and tablatures for all songs of the singer (group) Maroon 5. Other chords and tabs for the "Take What You Can " can find at the bottom of the page.

[Intro]
e|-x-x-----------------------------------------------------------------------|
B|-x-x-----------7-----7---7------7---7--------------------------------------|
G|-x-x-----------7-----7g9-7------7g9-7--7---7-----------7------7------7-----|
D|-x-x------7/9-----9--------9-----------7g9-7--------7;---------------------|
A|-x-x------------------------------------------9--7;-------(7)----(7)-------|
E|-x-x-157------------------------------------------------------------------|

e|---------------------------------------------------------------------------|
B|----------------------7^---10/1210---10-------10--------------------------|
G|-----7--6h7p6;--------------9/119-----9--9b11-----9b11r9p7--9p7-----------|
D|---8-----------8--------------------------------------------------9--7g9p7-|
A|-9----------------9--------------------------------------------------------|
E|---------------------------------------------------------------------------|

e|---------------------------------------------------------------------------|
B|---------------------------------------------------------------------------|
G|----------76--------------------------------------------------------------|
D|------7h9------7-----9----------------------------------------------------|
A|--7/9------------7/9-------------------------------------------------------|
E|---------------------------------------------------------------------------|

In addition to Chords / Tabs Maroon 5 - Take What You Can (First Version), we offer an excerpt from a random book.78 Pozner Vladimir Solomonovich (1905-1992) - poet; was known for his ironic poetry.

LiveInternet