AllChordsTabs.com

Jimmies Chicken Shack - Slow Change (First Version) Chords and Tabs


Artists:
Chords and Tabs » J » Jimmies Chicken Shack - Slow Change (First Version)

Jimmies Chicken Shack - Slow Change (First Version)

Jimmies Chicken Shack - Slow Change (First Version) Chords / Tabs

Jimmies Chicken Shack - Slow Change First Version: chords and tabs for the song. Watch chords and tablatures for all songs of the singer (group) Jimmies Chicken Shack. Other chords and tabs for the "Slow Change" can find at the bottom of the page.

Jimmies Chicken SHack Tab - SLow Change

Havent Been Able to find this tab online so here is a shot at it

Dropped D Tuning DADGBe

Intro
e------------------------------------------------------------------------|
B------------------------------------------------------------------------|
G-----------------------4/5-5-5--------------------------------4/5-5-4-2-|
D----5--5--5--5---0--0---------x-x-x-----5--5--5--5---0--0---------------|
A----3--3--3--3---0--0---------x-x-x-----3--3--3--3---0--0---------------|
D----3--3--3--3---0--0---------x-x-x-----3--3--3--3---0--0---------------|

Outro (hum like the wind...)
e--------------------------|
B--------------------------|
G--------------------------|
D---5-5-5-5--4--0----------|
A---3-3-3-3--2--0----------|
D---3-3-3-3--2--0--<5>-----|


Thats all i can figure out for now

In addition to Chords / Tabs Jimmies Chicken Shack - Slow Change (First Version), we offer an excerpt from a random book.This music was dedicated to me, as a spokesman for Maeterlinck's images and an adorer of old Bruges.

LiveInternet