AllChordsTabs.com

Less Than Jake - Handshake Meets Pokerface (First Version) Chords and Tabs


Artists:
Chords and Tabs » L » Less Than Jake - Handshake Meets Pokerface (First Version)

Less Than Jake - Handshake Meets Pokerface (First Version)

Less Than Jake - Handshake Meets Pokerface (First Version) Chords / Tabs

Less Than Jake - Handshake Meets Pokerface First Version: chords and tabs for the song. Watch chords and tablatures for all songs of the singer (group) Less Than Jake. Other chords and tabs for the "Handshake Meets Pokerface" can find at the bottom of the page.

Handshake Meets Pokerface:

Update: (6/2/12) Fixed Interlude 2, slight tweaks in chorus and verse, figured out
verse ending and fixed the final chorus.
Great song off of Less Than Jake's new album, "GNV FLA".
or just with suggestions on how to make the tab be less inaccurate.


Intro Pt.1
e|-----------------|(X3)
B|-----------------|
G|--9-9-----------|
D|--9-9---4~-7~---|
A|--7-7---4~-7~---|
E|---------2~-5~---|

Intro Pt.2
e|-----------------|(X1)
B|-----------------|
G|--999-----------|
D|--999---4~-7~---|
A|--777---4~-7~---|
E|---------2~-5~---|

Intro Pt.3/Chorus(Ska Style)
e|--7-----2-----5-------|(X2)
B|--9-----2-----5-------|
G|--9-----3-----6-------|
D|--9-----4-----7-------|
A|--7(X8)-4(X4)-7(X4)---|
E|--------2-----5-------|

Verse
e|------------------------------------------|(X2)
B|---------------9--------------------------|
G|---------------9--------------------------|
D|--7-----11-----11-----11-----44-6-77-999--|
A|--7-----11-----11-----11-----44-6-77-999--|
E|--5(X?)-9-(X?)-9-(X?)-9-(X?)-22-4-55-777--|

Verse Ending
e|--------------------------|
B|--------------------------|
G|--------------------------|
D|--7-7-777--11-1111--9-99--|
A|--7-7-777--11-1111--9-99--|
E|--5-5-555--9--9-9---7-77--|

Chorus/interlude
e|--7-----2-----5-------|(X6)   (Last time play last chord (A) as a power
B|--9-----2-----5-------|        chord and palm mute)
G|--9-----3-----6-------|
D|--9-----4-----7-------|
A|--7(X8)-4(X4)-7(X4)---|
E|--------2-----5-------|

Verse
e|------------------------------------------|(X2)
B|---------------9--------------------------|
G|---------------9--------------------------|
D|--7-----11-----11-----11-----44-6-77-999--|
A|--7-----11-----11-----11-----44-6-77-999--|
E|--5(X?)-9-(X?)-9-(X?)-9-(X?)-22-4-55-777--|

Verse Ending
e|--------------------------|
B|--------------------------|
G|--------------------------|
D|--7-7-777--11-1111--9-99--|
A|--7-7-777--11-1111--9-99--|
E|--5-5-555--9--9-9---7-77--|

Chorus
e|--7-----2-----5-------|(X4)   (Last time play last chord (A) with
B|--9-----2-----5-------|        distortion)
G|--9-----3-----6-------|
D|--9-----4-----7-------|
A|--7(X8)-4(X4)-7(X4)---|
E|--------2-----5-------|

Interlude 2
e|----------------------------------------| (X4)
B|----------------------------------------|
G|--9-------------------------------------|
D|--9----11----9-11-9---7-----11----9-----|
A|--7(X5)11----9-11-9---7-----11----9-----|
E|-------9(X3)-7-9--7---5(X5)-9(X3)-7(X3)-|

Verse(For palm-muted parts, play some chords during them w/out PM. Listen to the
song to figure out which)
e|------------------------------------------|(X2)
B|---------------9--------------------------|
G|---------------9--------------------------|
D|--7-----11-----11-----11-----44-6-77-999--|
A|--7-----11-----11-----11-----44-6-77-999--|
E|--5(X?)-9-(X?)-9-(X?)-9-(X?)-22-4-55-777--|
.     .      .      .

Verse Ending
e|--------------------------|
B|--------------------------|
G|--------------------------|
D|--7-7-777--11-1111--9-99--|
A|--7-7-777--11-1111--9-99--|
E|--5-5-555--9--9-9---7-77--|

Final Chorus Guitar 1 (clean)
e|--7-----2-----5-------|(X4)
B|--9-----2-----5-------|
G|--9-----3-----6-------|
D|--9-----4-----7-------|
A|--7(X8)-4(X4)-7(X4)---|
E|--------2-----5-------|

Final Chorus Guitar 2 (distortion)
e|-------------------------------|(X4)
B|-------------------------------|
G|--9-----------6-------------8--|
D|--9-----6-----6-----7-----998--|
A|--7(X5)-6-----4(X5)-7-----996--|
E|--------4(X6)-------5(X3)-77---|

End on

e|--------|
B|--------|
G|--9-9--|
D|--9-9--|
A|--7-7--|
E|--------|

October 10, 2008

In addition to Chords / Tabs Less Than Jake - Handshake Meets Pokerface (First Version), we offer an excerpt from a random book.The maestro caressed the guest, played in his presence and completely charmed him with his skill.

LiveInternet