AllChordsTabs.com

Junoon - Mitti (First Version) Chords and Tabs


Artists:
Chords and Tabs » J » Junoon - Mitti (First Version)

Junoon - Mitti (First Version)

Junoon - Mitti (First Version) Chords / Tabs

Junoon - Mitti First Version: chords and tabs for the song. Watch chords and tablatures for all songs of the singer (group) Junoon. Other chords and tabs for the "Mitti" can find at the bottom of the page.

Junoon, Mitti.

#This OLGA file is the author's own work and represents their interpretation  #
#research. Remember to view this file in Courier, or some other monospaced    #


Band: Junoon

A quick word about this piece...
There are no rhythm guitar except open chord strumming in the
background at a slow pace..During the Antara, the strumming alternates between
Open Chord Em and Am. It is not so difficult to decipher the phrases and licks
of this solo from these tabs without timing info here..if you are keen,
you will find your way through!
I have left some more spaces between different licks to make things
easier.

Here is some explantion of the notation.

h  =  hammer on
p  =  pull off
/  =  slide up
  = slide down
^  = bend with size of bend notated above
v  = already bent, release to the fret number on right
~  =  vibrato
() = still ringing from the previous note


INTRO:
------
Four times
--------------------------12------------------------------
--9-10--9-10-9-10-9-10p9-------9-10-9-10-9-10-9-10p9------
-----------------------------------------------------9----
----------------------------------------------------------
----------------------------------------------------------
----------------------------------------------------------


Mitti me mil jaayenge..


Geet hai jo..
..mil jaayenge..

Khwaab hai jo..

..mil jaayenge..


Guitar Solo:
Repeat Four Times
----------------------------------------------------------------------
----------------------------------------------------------------------
----------------------------------------------------------------------
--6^7v6^7v6^7v6^7v6^7v6^7v6^7v6^7v6-----------------------------------
----------------------------------------------------------------------
----------------------------------------------------------------------

----------------------------------------------------------------------
-------------------------------10~~-10~~--10^11v10p8--------9-10-9-10-
--4~~/9~~--9~~--9^11v9p7-----------------------------10p9p7-----------
-------------------------7~~------------------------------------------
----------------------------------------------------------------------
----------------------------------------------------------------------

--12~~/(16)/(19)-22^24-22^24~~----22^24v22p19-21^23v21p19--22^24v22p19
----------------------------------------------------------------------
----------------------------------------------------------------------
----------------------------------------------------------------------
----------------------------------------------------------------------
----------------------------------------------------------------------

--21^23v21p19--22^24v22~~--17-19-21-21^23v21p19-17-19-19~~~------------
-----------------------------------------------------------------------
-----------------------------------------------------------------------
-----------------------------------------------------------------------
-----------------------------------------------------------------------
-----------------------------------------------------------------------


------------------------------------------------------14-15-14^15~~---
------------------------------------------------13-16-----------------
----------------------------------------------------------------------
----------------------------------------------------------------------
----------------------------------------------------------------------

----------------------------------------------------------------------
-14^15v14p12-14p12-------------------14-15-17^18~~--19^20~~-21^22v21p19
--------------------14-12~~~---13-16----------------------------------
----------------------------------------------------------------------
----------------------------------------------------------------------
----------------------------------------------------------------------

----------------------------------------------12-15^17v15p12----17^19-
-19^20v19p17--14^15--(15)v14p12~~~------12-15----------------15-------
----------------------------------------------------------------------
----------------------------------------------------------------------
----------------------------------------------------------------------
----------------------------------------------------------------------

-17-16-17-16-17^19v17p15----------------------------------------------
-------------------------17p15----------------------------------------
-------------------------------16^18v16p14~~~-------------------------
----------------------------------------------------------------------
----------------------------------------------------------------------
----------------------------------------------------------------------

----------------------------------------------------------------------
----------------------------------------------------------------------
--14h16-13h14-11h13-9h11-6h7-4h6-6^7v6^7v6--6^7v6p4-------------------
----------------------------------------------------6-6^7v6p4---------
--------------------------------------------------------------6------
----------------------------------------------------------------------

----------------------------------------------------------------------
----------------------------------------------------------------------
----------------------------------------------------------------------
----------------------------------------------------------------------
--5-7-6-7-6-7-6-------------------------------------------------------
----------------------------------------------------------------------

Geet hai jo..

..Saare matti me mil jaayenge..

Feel free to drop me a line!
-Apurva

In addition to Chords / Tabs Junoon - Mitti (First Version), we offer an excerpt from a random book.I constantly fall into despondency and murmur - either my mother dislikes me, or the team does not appreciate me.

LiveInternet