AllChordsTabs.com

Marilyn Manson - Disposible Teens (First Version) Chords and Tabs


Artists:
Chords and Tabs » M » Marilyn Manson - Disposible Teens (First Version)

Marilyn Manson - Disposible Teens (First Version)

Marilyn Manson - Disposible Teens (First Version) Chords / Tabs

Marilyn Manson - Disposible Teens First Version: chords and tabs for the song. Watch chords and tablatures for all songs of the singer (group) Marilyn Manson. Other chords and tabs for the "Disposible Teens" can find at the bottom of the page.

THIS IS ONE OF MY FAVORITE SONGS SO I HOPE I GOT IT RIGHT.
CHORUS
E|------------------------------------------|
B|------------------------------------------|
G|-------7------------------------X-X---X---|
D|9-9--7-7-7---9-9-9-9-9-7-9------X-X---X---|
A|9-9--7-5-7---9-9-9-9-9-7-9------X-X---X---|
E|7-7--5---5---7-7-7-7-7-5-7------X-X---X---|

VERSE
E|----------------------------------------------------------------------I
B|----------------------------------------------------------------------I
G|----------------------------------------------------------------------I
D|-0--x--x-x--x--0-00--x--x-x--x-x--x--0--x--x-x--x--0-00--x--0h3--0h3--I
A|-0--x--x-x--x--0-00--x--x-x--x-x--x--0--x--x-x--x--0-00--x--0h3--0h3--I
E|-0--x--x-x--x--0-00--x--x-x--x-x--x--0--x--x-x--x--0-00--x--0h3--0h3--I


LAST VERSE

E|-----------------------------------------|
B|-----------------------------------------|
G|-----------------------------------------|
D|----8--------9-----------------------------|
A|----8--------9-----------------------------|    15 ON EACH
E|----6--------6-----------------------------|

THIS IS THE WHOLE SONG I AINT PUT THE ORDER THAT ITS PLAYED IN BUT YOU CAN WORK IT OUT
PLEASE GIVE ME A GOOD RATING ITS MY FIRST TAB AND IT TOOK ME LIKE 10 MINS!!!!!!!!!
MARILYN MANSON ROCKS!!!!!!!!!!! ILL DO THIS TAB AGAIN INPROVED WITH THE TIMING!!!!!

In addition to Chords / Tabs Marilyn Manson - Disposible Teens (First Version), we offer an excerpt from a random book.I was granted political asylum and citizenship, - I answered a little hesitantly.

LiveInternet