AllChordsTabs.com

Linkin Park - Castle Of Glass (Third Version) Chords and Tabs


Artists:
Chords and Tabs » L » Linkin Park - Castle Of Glass (Third Version)

Linkin Park - Castle Of Glass (Third Version)

Linkin Park - Castle Of Glass (Third Version) Chords / Tabs

Linkin Park - Castle Of Glass Third Version: chords and tabs for the song. Watch chords and tablatures for all songs of the singer (group) Linkin Park. Other chords and tabs for the "Castle Of Glass" can find at the bottom of the page.

TUNING: Drop Db meaning... Db Ab Db Gb Bb Eb   /=Slide, x=Dead Note

The beginning starts with a natural harmonic strummed up and down on the 5th fret which
then becomes a part of the background.


|-------------------------|
|-------------------------|
|-------------------------|
|-(5)--(5)(5)--(5)(5)(5)--|
|-(5)--(5)(5)--(5)(5)(5)--|
|-(5)--(5)(5)--(5)(5)(5)--|  x12 approx (fades into intro)


These are just the main chords; there is more complicated strumming pattern. So watch
the video for a full understanding of how its done.(link above)

Intro
|--------------------------------------------------------------|
|--------------------------------------------------------------|
|-7-7-9-10-9-7-5-5-7-7-7-7----3333333/5555555/777777777777-----|
|-x-x-x--x-x-x-x-x-x-5-5-0----xxxxxxx/xxxxxxx/xxxxxxxxxxxx-----|
|-5-5-7--8-7-5-3-3-5-5-5-0-x4-1111111/3333333/555555555555-----|
|--------------------5-5---------------------------------------|

Verses
|-------------------------------------------------------------------------|
|-------------------------------------------------------------------------|
|-7-77777-7-77777-7-77777-7-77777-7-77777-7-77777-7-77777-7-77777-7-77777-|
|-x-xxxxx-x-xxxxx-x-xxxxx-x-xxxxx-x-xxxxx-x-xxxxx-x-xxxxx-x-xxxxx-x-xxxxx-|
|-5-55555-5-55555-5-55555-5-55555-5-55555-5-55555-5-55555-5-55555-5-55555-|
|-0-00000-0-00000-0-00000-0-00000-0-00000-0-00000-0-00000-0-00000-0-00000-|
Take me down to the river bend, Take me down to the fighting end.

|-----------------------------------------------------------------|
|-----------------------------------------------------------------|
|-5-55555-5-55555-5-55555-5-55555/7-77777-7-77777-7-77777-7-77777-|
|-x-xxxxx-x-xxxxx-x-xxxxx-x-xxxxx-x-xxxxx-x-xxxxx-x-xxxxx-x-xxxxx-|
|-3-33333-3-33333-3-33333-3-33333/5-55555-5-55555-5-55555-5-55555-|
|-x-xxxxx-x-xxxxx-x-xxxxx-x-xxxxx-0-00000-0-00000-0-00000-0-00000-|
Wash the poison from off my skinShow me how to be whole again.

Chorus Guitar I
|-----------------------------------------------|
|-----------------------------------------------|
|-3333333333-55555555555-5555555555-77777777777-|
|-3333333333-33333333333-5555555555-77777777777-|
|-1111111111-33333333333-3333333333-55555555555-|
|-xxxxxxxxxx-33333333333------------00000000000-|x2

Chorus Guitar II
|---------------------------------------------|
|---------------------------------------------|
|-10101010101010101010-12-10101010101010101010|
|-x x x x x x x x-x-x--x--x-x-x-x-x-x-x-x-x-x-|
|-8-8-8-8-8-8-8-8-8-8--10-8-8-8-8-8-8-8-8-8-8-|
|-x-x-x-x-x-x-x-x-x-x--x--x-x-x-x-x-x-x-x-x-x-|

|---------------------------------------------------|
|---------------------------------------------------|
|-12-9-9-9-9-9-9-9-9-9-9/10101010101010101010----14-|
|-x--x-x-x-x-x-x-x-x-x-x-x-x-x-x-x-x-x-x-x-x-----x--|
|-10-7-7-7-7-7-7-7-7-7-7/8-8-8-8-8-8-8-8-8-8--x2-12-|
|-x--x-x-x-x-x-x-x-x-x-x-x-x-x-x-x-x-x-x-x-x-----x--|

2nd Verse Same as 1st

2nd Chorus Same as 1st

Bridge
|---------1--------------------------------------------3-----------5-|
|-----1---1-------1------------6------------------3---3----------5-5-|
|-----3-------------3------5---5---------5--------5--------------7---|
|---3---------------------3----------------3----5--------------7-----|
|-1-----1---------------3---------------------3-----3--------5-------|
|---------------------3------3---------------------------------------|

|---------1--------------------------------------------3-----5--------------|
|-----1---1-------1------------6------------------3---3------5--------------|
|-----3-------------3------5---5---------5--------5----------7--------------|
|---3---------------------3----------------3----5------------7--xx--xxxx----|
|-1-----1---------------3---------------------3-----3--------5--xx--xxxx----|
|---------------------3------3----------------------------------xx--xxxx----|

Chorus Guitar I and II Same as 1st

Outro
|-----------------------------555555555555555555---------|
|-----------------------------555555555555555555---------|
|-7-7-9-10-9-7-5-5-7-7-7-7----777777777777777777---------|
|-x-x-x--x-x-x-x-x-x-5-5-0----777777777777777777---------|
|-5-5-7--8-7-5-3-3-5-5-5-0-x4-555555555555555555---------|
|--------------------5-5-------------------------0-------|
For you to see...

In addition to Chords / Tabs Linkin Park - Castle Of Glass (Third Version), we offer an excerpt from a random book.The action fits into seven almost identical days, from Monday morning to Sunday night.

LiveInternet