AllChordsTabs.com

Mark Knopfler - Im The Fool (First Version) Chords and Tabs


Artists:
Chords and Tabs » M » Mark Knopfler - Im The Fool (First Version)

Mark Knopfler - Im The Fool (First Version)

Mark Knopfler - Im The Fool (First Version) Chords / Tabs

Mark Knopfler - Im The Fool First Version: chords and tabs for the song. Watch chords and tablatures for all songs of the singer (group) Mark Knopfler. Other chords and tabs for the "Im The Fool " can find at the bottom of the page.

[solo]
e|---------------------------------------------------------------------------|
B|---------------------------------------------------------------------------|
G|--5-7-9--10---9h10p9-7-9h10--7-7-7-5-7/9---5-7-9--10--9h10p9-7--9h10-------|
D|-5---------------------------5-5-5-5-5----5--------------------------------|
A|---------------------------------------------------------------------------|
E|---------------------------------------------------------------------------|

e|---------------------------------------------------------------------------|
B|---------------------------------8------------8----------------------------|
G|--9-9-9-7-9-5---------10-10--9h10--10-----9h10-7-7p5-5-4-7/9---------------|
|--5-5-5-5-5-5-------7-------------------10---------------------------------|
A|---------------------------------------------------------------------------|
E|---------------------------------------------------------------------------|

e|---------------------------------------------------------------------------|
B|---------------------------------------------------------------------------|
G|---5-7-9--10 9h10p9-7-9h10--7-5-4-5h7-5------------------------------------|
D|--5-------------------------5-5-5-5---5------------------------------------|
A|---------------------------------------------------------------------------|
E|---------------------------------------------------------------------------|

In addition to Chords / Tabs Mark Knopfler - Im The Fool (First Version), we offer an excerpt from a random book.The doctor will not lose patience and tolerance, for the limited feelings will alienate the sick from him.

LiveInternet