AllChordsTabs.com

Joe Satriani - A Celebration (First Version) Chords and Tabs


Artists:
Chords and Tabs » J » Joe Satriani - A Celebration (First Version)

Joe Satriani - A Celebration (First Version)

Joe Satriani - A Celebration (First Version) Chords / Tabs

Joe Satriani - A Celebration First Version: chords and tabs for the song. Watch chords and tablatures for all songs of the singer (group) Joe Satriani. Other chords and tabs for the "A Celebration" can find at the bottom of the page.

Joe Satriani
Unstoppable Momentum

E|----------------------------------|
B|--5/8-8--10--8--------------------|
G|----------------9--9/7--5--7/9----|
D|----------------------------------|
A|----------------------------------|
E|----------------------------------|

E|------------------------------|
B|--8/10--8---------------------|
G|-----------9--7--9--7/5-------|
D|------------------------------|
A|------------------------------|
E|------------------------------|

E|--------------------------------------------------|
B|------------5/8--10/12--12/13--13/15--15/17--13---|
G|--5/7--7/9----------------------------------------|
D|--------------------------------------------------|
A|--------------------------------------------------|
E|--------------------------------------------------|

E|------------------------------------|
B|--12-12--13-13----------------------|
G|------------------------------------|
D|----------------------9-9--10-10----|
A|------------------------------------|
E|------------------------------------|

E|-----------------------------------|
B|--5/8-8--10--8---------------------|
G|----------------9--9/7--5--7b9-----|
D|-----------------------------------|
A|-----------------------------------|
E|-----------------------------------|

E|-----------------------------------|
B|--8/10--8--------------------------|
G|-----------9--7--9--7/5----7b9-----|
D|-----------------------------------|
A|-----------------------------------|
E|-----------------------------------|

E|-------------------------------|
B|--8/10--8----------------------|
G|-----------9--7--9--7----------|
D|-----------------------5/7-----|
A|-------------------------------|
E|-------------------------------|

E|------------------------|
B|------------------------|
G|--5/7--7--9--7--4--5----|
D|------------------------|
A|------------------------|
E|------------------------|

Pre-chorus (may not be perfect)

E|--------------------------------------------------------|
B|--------------------------------5--8--8/10--5--8--8/10--|
G|-----------------------4--5--7--------------------------|
D|-----------------5--7-----------------------------------|
A|--------------7-----------------------------------------|
E|--0--3--5--7--------------------------------------------|

Chorus

E|------------------------------------------------------------|
B|------------------------------------------------------------|
G|--10-14-10---16-16-16-14-14-9-9---10-14-12--10--7--9--9/12--|
D|------------------------------------------------------------|
A|------------------------------------------------------------|
E|------------------------------------------------------------|

E|---------------------------------------------------------------|
B|-----------------------------------------------12--13/15--13---|
G|--10-14-10---16-16-16-17-17-12-12---10--12-14------------------|
D|---------------------------------------------------------------|
A|---------------------------------------------------------------|
E|---------------------------------------------------------------|

Solo

Ending Solo Riff (Before second chorus)

E|--20-20-19-19-17-17----------------------------------------| } R
B|--------------------20-20-18-18-17-17----------------------| } E
G|--------------------------------------19-19-17-17-----} P--| X3
D|-----------------------------------------------------------| } E
A|-----------------------------------------------------------| } A
E|-----------------------------------------------------------| } T

E|------------------------------|
B|------------------------------|
G|--17/19-19--21--19--16--17----|
D|------------------------------|
A|------------------------------|
E|------------------------------|

Repeat chorus twice, second time with couple of lead fills.
End on a C5

G|--5--|
D|--5--|
A|--3--|
E|-----|

In addition to Chords / Tabs Joe Satriani - A Celebration (First Version), we offer an excerpt from a random book.And so I could not call the hotel administrators to check the availability of rooms.

LiveInternet