AllChordsTabs.com

Justin Timberlake - Mirrors (First Version) Chords and Tabs


Artists:
Chords and Tabs » J » Justin Timberlake - Mirrors (First Version)

Justin Timberlake - Mirrors (First Version)

Justin Timberlake - Mirrors (First Version) Chords / Tabs

Justin Timberlake - Mirrors First Version: chords and tabs for the song. Watch chords and tablatures for all songs of the singer (group) Justin Timberlake. Other chords and tabs for the "Mirrors" can find at the bottom of the page.

    ________________________
/ Justin Timberlake     /
/ Mirrors               /
/ The 20/20 Experience  /
/_______________________/

capo:   3rd fret
key:    C major (original key: Eb major)
chords:
C    G    F    Dm   Am   Em   E/G#
e:---0----3----1----1----0----0----0----:
B:---1----3----1----3----1----0----0----:
G:---0----4----2----2----2----0----1----:
D:---2----5----3----0----2----2----2----:
A:---3----5----3---------0----2----x----:
E:--------3----1--------------0----4----:



INTRO: (instrumental chorus)
Notice how the bassline fits in neatly while strumming the chords.

C                G                F                F
|----------------|----------------|----------------|----------------|
|----------------|----------------|----------------|----------------|
|----------------|----------------|----------------|----------------|
|----------------|----------------|----------------|----------------|
|3-----------2-0-|--------------0-|----------------|--------0---0-2-|
|----------------|3-----------3---|1---------------|----------3-----|

C                G                F                F
|----------------|----------------|----------------|----------------|
|----------------|----------------|----------------|----------------|
|----------------|----------------|----------------|----------------|
|----------------|----------------|----------------|----------------|
|3-----------2-0-|--------------0-|----------------|--------0---0-2-|
|----------------|3-----------3---|1---------------|----------3-----|

C                G                Dm               Am
|----------------|----------------|----------------|----------------|
|----------------|----------------|----------------|----------------|
|----------------|----------------|----------------|----------------|
|----------------|----------------|0---------------|----------------|
|3-----------2-0-|------------0-3-|------------3-2-|0-----------0-2-|
|----------------|3---------------|----------------|----------------|

C                G                F                F
|----------------|----------------|----------------|----------------|
|----------------|----------------|----------------|----------------|
|----------------|----------------|----------------|----------------|
|----------------|----------------|----------------|----------------|
|3-----------2-0-|--------------0-|----------------|----------------|
|----------------|3-----------3---|1---------------|----------------|


Meanwhile an electric guitar plays this 4x.
This is also played in the CHORUS, with a little lower volume.
C                G                F (Dm)           F (Am)
|------3-3-3-----|------3-3-3-----|------1-1-1-0-0-|0-0-0-0-0-0-0-0-|
|1-1-1-------1-1-|0-0-0-------0-0-|----------------|----------------|
|----------------|----------------|2-2-2-----------|----------------|
|----------------|----------------|----------------|----------------|
|----------------|----------------|----------------|----------------|
|----------------|----------------|----------------|----------------|



VERSES:
1. "Aren't you ...
2. "Aren't you ...

Am              Em              Dm              F
+---=---=---=---+---=---=---=---+---=---=---=---+---=---=---=---+
something to admire, cause your shine is something like a mirror. And I can't help but
something, an original, cause it doesn't seem merely assembled. And I can't help but

Am              Em              Dm              Dm     E/G#
+---=---=---=---+---=---=---=---+---=---=---=---+---=---=---=---+
notice you reflecting this heart of mine. If you
stare cause I see truth somewhere in your eyes. Ooh, I can't

Am              Em              Dm              F
+---=---=---=---+---=---=---=---+---=---=---=---+---=---=---=---+
ever feel alone, and the glare makes me hard to find. Just know that I'm
ever change without you. You reflect me. I love that about you. And if I

Am              Em              Dm              Dm     E/G#
+---=---=---=---+---=---=---=---+---=---=---=---+---=---=---=---+
always parallel on the other side. Cause with your hand in my
could, I would look at us all the time. Cause with your hand in my



PRE-CHORUS:
Am              Em              Dm              F
+---=---=---=---+---=---=---=---+---=---=---=---+---=---=---=---+
hand and a pocket full of soul, I can tell you there's no place we couldn't go.
Just put your hand on the

Am              Em              Dm              break
+---=---=---=---+---=---=---=---+---=---=---=---+---=---=---=---+
past, I'm here trying to pull you through, You just gotta be strong.
Cause I don't wanna lose you



CHORUS:
C               G               F               F
+---=---=---=---+---=---=---=---+---=---=---=---+---=---=---=---+
now. I'm lookin' right at the other half of me. The vacancy that sat in my

C               G               F               F
+---=---=---=---+---=---=---=---+---=---=---=---+---=---=---=---+
heart is a space that now you hold. Show me how to fight for

C               G               Dm              Am
+---=---=---=---+---=---=---=---+---=---=---=---+---=---=---=---+
now. And I'll tell you baby, it was easy coming back into you once I figured it

C               G               F               F
+---=---=---=---+---=---=---=---+---=---=---=---+---=---=---=---+
out. You were right here all along. It's like you're my



C               G               F               F
+---=---=---=---+---=---=---=---+---=---=---=---+---=---=---=---+
mirror. My mirror staring back at me. I couldn't get any

C               G               F               F
+---=---=---=---+---=---=---=---+---=---=---=---+---=---=---=---+
bigger, with anyone else beside of me. And now it's clear as this

C               G               Dm              Am
+---=---=---=---+---=---=---=---+---=---=---=---+---=---=---=---+
promise that we're making two reflections into one. Cause it's like you're my

C               G               F               F      E/G#
+---=---=---=---+---=---=---=---+---=---=---=---+---=---=---=---+
mirror. My mirror staring back at me, staring back at me.



VERSE

PRE-CHORUS

CHORUS (Quit the E/G# at the end.)



BRIDGE:
Dm              Dm              Am              Am
+---=---=---=---+---=---=---=---+---=---=---=---+---=---=---=---+
Yesterday is history.

Dm              Dm              Am              G
+---=---=---=---+---=---=---=---+---=---=---=---+---=---=---=---+
Tomorrow's a mystery.

Dm              Dm              Am              Am
+---=---=---=---+---=---=---=---+---=---=---=---+---=---=---=---+
I can see you looking back at me.

F               F               F      break
+---=---=---=---+---=---=---=---+---=---=---=---+---=---=---=---+
Keep your eyes on me. Baby, keep your eyes on me.



For the electric guitarists, again here's a riff during this part.
Palm mute the notes to tame the distortion.
Dm               Dm               Am               Am
|1-1-----1-1-----|1-1-----1-1-----|0-0-----0-0-----|0-0-----0-0-----|
|----3-3-----3-3-|----3-3-----3-3-|----1-1-----1-1-|----1-1-----1-1-|
|----------------|----------------|----------------|----------------|
|----------------|----------------|----------------|----------------|
|----------------|----------------|----------------|----------------|
|----------------|----------------|----------------|----------------|

Dm               Dm               Am               G
|1-1-----1-1-----|1-1-----1-1-----|0-0-----0-0-----|0---------------|
|----3-3-----3-3-|----3-3-----3-3-|----1-1-----1-1-|3-----0-----0-0-|
|----------------|----------------|----------------|4-------2-2-----|
|----------------|----------------|----------------|----------------|
|----------------|----------------|----------------|----------------|
|----------------|----------------|----------------|----------------|

Dm               Dm               Am               Am
|1-1-----1-1-----|1-1-----1-1-----|0-0-----0-0-----|0-0-----0-0-----|
|----3-3-----3-3-|----3-3-----3-3-|----1-1-----1-1-|----1-1-----1-1-|
|----------------|----------------|----------------|----------------|
|----------------|----------------|----------------|----------------|
|----------------|----------------|----------------|----------------|
|----------------|----------------|----------------|----------------|

F                F                F       break
|1-1---------1-1-|1-------1---1-1-|1---------------|----------------|
|----3-3-3-3-----|--3-3-3---3-----|----------------|----------------|
|----------------|----------------|----------------|----------------|
|----------------|----------------|----------------|----------------|
|----------------|----------------|----------------|----------------|
|----------------|----------------|----------------|----------------|




CHORUS (chord instruments out, except the vocal harmonies)

CHORUS (lead vocals out, string arrangement up front)




FINALE:
Am              Em              Dm              Dm Am
+---=---=---=---+---=---=---=---+---=---=---=---+---=---=---=---+
This chord progression is repeated throughout the rest of the song.


"
You are, you are the love of my life + Aah

Now, you're the inspiration for this precious song
And I just wanna see your face light up since you put me on
So now I say goodbye to the old me - it's already gone
And I can't wait wait wait wait wait to get you home
Just to let you know, you are

You are, you are the love of my life + Aah

Girl, you're my reflection, all I see is you
My reflection in everything I do
You're my reflection, and all I see is you
My reflection in everything I do

You are, you are the love of my life + Aah
"



+--------------------------------------------------------------------------+
Jon Sebastian Frederiksen - 17th /February /13

In addition to Chords / Tabs Justin Timberlake - Mirrors (First Version), we offer an excerpt from a random book.I still had some work to do for myself, but that could have been left for the morning.

LiveInternet