AllChordsTabs.com

Kings Of Convenience - Power Of Not Knowing (First Version) Chords and Tabs


Artists:
Chords and Tabs » K » Kings Of Convenience - Power Of Not Knowing (First Version)

Kings Of Convenience - Power Of Not Knowing (First Version)

Kings Of Convenience - Power Of Not Knowing (First Version) Chords / Tabs

Kings Of Convenience - Power Of Not Knowing First Version: chords and tabs for the song. Watch chords and tablatures for all songs of the singer (group) Kings Of Convenience. Other chords and tabs for the "Power Of Not Knowing" can find at the bottom of the page.

ALBUM:	Decleration of Dependence
YEAR:	2009



** Tabs for all sections are bellow the chords&lyrics (only for the main guitar)


[INTRO]


Dm        G6
I see you changing, girl
Am          Dm
G6           Am      Dm
Impressed by and trying to imitate
G6
Those who are older
Am            Dm
Those who are colder
G6             Am	     [INTRO]
Suddenly embarrassed by your age


Dm           G6
Our bigger blessing, girl
Am         Dm
Is being young
G6
The power of not knowing
Am         Dm
Where you belong
G6
I try so hard to keep it
Am               Dm
Not to lose that secret
G6               Am
Waiting for someone like you
[INTRO]
To come along

[INTERLUDE]

Dm    G6
Maybe it was me
Am             Dm
That made you old
G6
Stole whatever it was
Am             Dm
That made you glow
G6
A little touch of something
Am                Dm
A lot of love for nothing
G6
And now our heart once open
Am        Dm
Will be closed



INTRO


Dm                         G6
Q    E   E  E  E  E  E     Q    Q    Q    Q
E||--------0h--1-----------0--|----------------------|
B||--------3------------3-----|-------0--------------|
G||*-----------------2--------|-----------------0----|
D||*--0-----------0-----------|----------------------|
A||---------------------------|------------2---------|
E||---------------------------|--3-------------------|


Am                         Dm                        Dm
Q    E   E  E  E  E  E     Q    Q    Q    Q          Q    E   E  E  E  E  E
-----------------------1--|-----------------------||--------3h--5-----------3--|
-------0h--1--------1-----|-------3---------------||--------3---------3--------|
-----------------2--------|-----------------2----*||*--------------------0-----|
--------------2-----------|--0---------0---------*||*--0-----------0-----------|
--0-----------------------|-----------------------||---------------------------|
--------------------------|-----------------------||---------------------------|


G6                     Am                          Dm
Q    Q    Q    Q       Q    E   E  E   E  E  E     Q    Q    Q    Q
----------------------|-------0h--1------------0--|-----------------------||
-------3--------------|---------------------------|-------3---------------||
-----------------4----|--------------2p--0--------|-----------------2----*||
----------------------|---------------------2-----|--0---------0---------*||
----------------------|--0------------------------|-----------------------||
--3---------3---------|---------------------------|-----------------------||


VERSE (repeat...)

Dm                     G6
Q    Q    Q    Q       Q    Q    Q    Q
E||-------1---------1----|-------0---------0----|
B||-------3---------3----|-------0---------0----|
G||----------------------|----------------------|
D||--0-------------------|----------------------|
A||------------0---------|------------2---------|
E||----------------------|--3-------------------|


Am                     Dm
Q    Q    Q    Q       Q    Q    Q    Q
-------0---------0----|-------1---------1----||
-------1---------1----|-------3---------3----||
----------------------|------------2---------||
------------2---------|--0-------------------||
--0-------------------|----------------------||
----------------------|----------------------||


INTERLUDE


Q    Q    E  Q    E     Q    Q    H           Q    Q    E  Q    E
--------9---------------|---------------------|-------8---------------|
---------------------7--|---------------------|--------------------6--|
*---------------9-------|-------9-------------|---------------9-------|
*--0---------0----------|--0---------0--------|--0---------0----------|
------------------------|---------------------|-----------------------|
------------------------|---------------------|-----------------------|


Q    Q    H           Q    Q    E  Q    E     Q    Q    Q    E   E
---------------------|-------7---------------|-------------------------|
---------------------|--------------------5--|-----------------5s--6s--|
-------9-------------|---------------5-------|-------5-----------------|
--0---------0--------|--0---------0----------|--0---------0------------|
---------------------|-----------------------|-------------------------|
---------------------|-----------------------|-------------------------|



Q    Q    E  Q    E     Q    Q    H
-------5---------------|----------------------||
--7-----------------7--|----------------------||
---------------7-------|-------7-------------*||
--0---------0----------|--0---------0--------*||
-----------------------|-----------(0)--------||
-----------------------|----------------------||

** on the second repetition of the interlude (before going back to the verse),
play the note inside the brackets (A) instead of the higher note (D).

In addition to Chords / Tabs Kings Of Convenience - Power Of Not Knowing (First Version), we offer an excerpt from a random book.Ilar quietly got up and left the studio, so as not to interfere with the creative inspiration of Chapter 26.

LiveInternet