AllChordsTabs.com

Mars Volta - Dyslexicon (First Version) Chords and Tabs


Artists:
Chords and Tabs » M » Mars Volta - Dyslexicon (First Version)

Mars Volta - Dyslexicon (First Version)

Mars Volta - Dyslexicon (First Version) Chords / Tabs

Mars Volta - Dyslexicon First Version: chords and tabs for the song. Watch chords and tablatures for all songs of the singer (group) Mars Volta. Other chords and tabs for the "Dyslexicon " can find at the bottom of the page.

Tuning: Standard

Verse:
e|-----7---------------------------------------------------------------------|
B|-----5---------------------------------------------------------------------|
G|-----5---------------------------------------------------------------------|
D|-----7---------------------------------------------------------------------|
A|-----0---------------------------------------------------------------------|
E|-----x---------------------------------------------------------------------|
Nature red in tooth and claw, I haven't seemed to keep my powder dry...

e|------5-----5-----5-----5------5-----1-----1-----1-----1-----1--------7----|
B|------6-----6-----6-----6------6-----3-----3-----3-----3-----3--------5----|
G|------7-----7-----7-----7------7-----3-----3-----3-----3-----3--------5----|
D|------x-----x-----x-----x------x-----x-----x-----x-----x-----x--------7----|
A|------5-----5-----5-----5------5-----1-----1-----1-----1-----1--------0----|
E|------x-----x-----x-----x------x-----x-----x-----x-----x-----x--------x----|
I always seem to                 hear it in your laughter

e|-----7---------------------------------------------------------------------|
B|-----5---------------------------------------------------------------------|
G|-----5---------------------------------------------------------------------|
D|-----7---------------------------------------------------------------------|
A|-----0---------------------------------------------------------------------|
E|-----x---------------------------------------------------------------------|
The second that I fell in love with the handle of your revolver

e|------5-----5-----5-----5------5-----1-----1-----1-----1-----1--------7----|
B|------6-----6-----6-----6------6-----3-----3-----3-----3-----3--------5----|
G|------7-----7-----7-----7------7-----3-----3-----3-----3-----3--------5----|
D|------x-----x-----x-----x------x-----x-----x-----x-----x-----x--------7----|
A|------5-----5-----5-----5------5-----1-----1-----1-----1-----1--------0----|
E|------x-----x-----x-----x------x-----x-----x-----x-----x-----x--------x----|
I always seem to                  hear it in your laughter

e|-----7---------------------------------------------------------------------|
B|-----5---------------------------------------------------------------------|
G|-----5---------------------------------------------------------------------|
D|-----7---------------------------------------------------------------------|
A|-----0---------------------------------------------------------------------|
E|-----x---------------------------------------------------------------------|
I begged to you a second chance with dried white roads to Bethlehem

e|------5-----5-----5-----5------5-----1-----1-----1-----1-----1--------7----|
B|------6-----6-----6-----6------6-----3-----3-----3-----3-----3--------5----|
G|------7-----7-----7-----7------7-----3-----3-----3-----3-----3--------5----|
D|------x-----x-----x-----x------x-----x-----x-----x-----x-----x--------7----|
A|------5-----5-----5-----5------5-----1-----1-----1-----1-----1--------0----|
E|------x-----x-----x-----x------x-----x-----x-----x-----x-----x--------x----|
I always seem to                 hear it in your laughter




e|------7--------------------------------------------------------------------|
B|------5--------------------------------------------------------------------|
G|------5---------------------Hold this chord--------------------------------|
D|------7--------------------------------------------------------------------|
A|------0--------------------------------------------------------------------|
E|------x--------------------------------------------------------------------|
Am I the valency that you deny?

Chorus: (Live version)
(Studio version just leaves out the hammer-ons from frets 0 to 1)

e|---------------------------------------------------------------------------|
B|---------------------------------------------------------------------------|
G|---------------------------------------------------------------------------|
D|---------------------------------------------------------------------------|
A|---------------------------------------------------------------------------|
E|-----3-3-3-3--3/6-6-6/5-1-0-0h1p0h1-3-3-3--3/6-6-6/5-1-0-0h1p0h1-3---------|
In the time of the sixth sun...                    We are cattle to the prod

e|---------------------------------------------------------------------------|
B|---------------------------------------------------------------------------|
G|---------------------------------------------------------------------------|
D|---------------------------------------------------------------------------|
A|---------------------------------------------------------------------------|
E|-----3-3-3-3--3/6-6-6/5-1-0-0h1p0h1h3-3-3--3/6-6-6/5-1-0-0h1p0h1-3---------|
And I burn this dictionary...                      Because it's my dyslexicon


Verse 2:

e|-----7---------------------------------------------------------------------|
B|-----5---------------------------------------------------------------------|
G|-----5---------------------------------------------------------------------|
D|-----7---------------------------------------------------------------------|
A|-----0---------------------------------------------------------------------|
E|-----x---------------------------------------------------------------------|


e|------5-----5-----5-----5------5-----1-----1-----1-----1-----1-------7-----|
B|------6-----6-----6-----6------6-----3-----3-----3-----3-----3-------5-----|
G|------7-----7-----7-----7------7-----3-----3-----3-----3-----3-------5-----|
D|------x-----x-----x-----x------x-----x-----x-----x-----x-----x-------7-----|
A|------5-----5-----5-----5------5-----1-----1-----1-----1-----1-------0-----|
E|------x-----x-----x-----x------x-----x-----x-----x-----x-----x-------x-----|
I always seem to                  hear it in your laughter


Break down:

e|---------------------------------------------------------------------------|
B|---------------------------------------------------------------------------|
G|---------------------------------------------------------------------------|
D|---------------------------------------------------------------------------|
A|-------3-----3----------3-----3---------7-----7-------8--------------------|
E|----5-----5---------4-4-----4---------8-----8-----7-7----------------------|


Bridge:

e|-----7-----7--------8------------------------------------------------------|
B|-----5-----5--------10----------x----x-------x-----------------------------|
G|-----5-----5--------10----------7----7-------10----------------------------| x2
D|-----7-----7--------10----------7----7-------10----------------------------|
A|-----0-----0--------8-----------5----5-------8-----------------------------|
E|-----x-----x---------------------------------------------------------------|

Chorus


e|---------------------------------------------------------------------------|
B|---------------------------------------------------------------------------|
G|---------------------------------------------------------------------------|
D|---------------------------------------------------------------------------|
A|---------------------------------------------------------------------------|
E|-----3-3-3-3--3/6-6-6/5-1-0-0h1p0h1h3-3-3--3/6-6-6/5-1-0-0h1p0h1-3---------|
In the time of the sixth sun...                    We are cattle to the prod

e|---------------------------------------------------------------------------|
B|---------------------------------------------------------------------------|
G|---------------------------------------------------------------------------|
D|---------------------------------------------------------------------------|
A|---------------------------------------------------------------------------|
E|-----3-3-3-3--3/6-6-6/5-1-0-0h1p0h1h3-3-3--3/6-6-6/5-1-0-0h1p0h1-3---------|
And I burn this dictionary...                      Because it's my dyslexicon


e|---------------------------------------------------------------------------|
B|---------------------------------------------------------------------------|
G|---------------------------------------------------------------------------|
D|---------------------------------------------------------------------------|
A|---------------------------------------------------------------------------|
E|-----3-3-3-3--3/6-6-6/5-1-0-0h1p0h1h3-3-3--3/6-6-6/5-1-0-0h1p0h1-3---------|
In the time of the sixth sun...                    We are cattle to the prod

e|---------------------------------------------------------------------------|
B|---------------------------------------------------------------------------|
G|---------------------------------------------------------------------------|
D|---------------------------------------------------------------------------|
A|---------------------------------------------------------------------------|
E|--3~-3~-3~-3~--3/6~-6~-6/5-1-0-0h1p0h1h3~-3~-3~--3/6-6-6/5-1-0-0h1p0h1-3---|
And I burn this dictionary...                      Because it's my dyslexicon



e|---------------------------------------------------------------------------|
B|---------------------------------------------------------------------------|
G|---------------------------------------------------------------------------|
D|---------------------------------------------------------------------------|
A|---------------------------------------------------------------------------|
E|--3~-3~-3~-3~--3/6~-6~-6/5-1-0-0h1p0h1-------------------------------------|
It's my dyslexicon

In addition to Chords / Tabs Mars Volta - Dyslexicon (First Version), we offer an excerpt from a random book.But will I sell my independence for money? In general, so far nothing has happened.

LiveInternet