AllChordsTabs.com

Marcy Playground - I Must Have Been Dreaming (First Version) Chords and Tabs


Artists:
Chords and Tabs » M » Marcy Playground - I Must Have Been Dreaming (First Version)

Marcy Playground - I Must Have Been Dreaming (First Version)

Marcy Playground - I Must Have Been Dreaming (First Version) Chords / Tabs

Marcy Playground - I Must Have Been Dreaming First Version: chords and tabs for the song. Watch chords and tablatures for all songs of the singer (group) Marcy Playground. Other chords and tabs for the "I Must Have Been Dreaming" can find at the bottom of the page.

----------------------------------------------------------------------------
----------------------------------------------------------------------------

Tuning: Standard

Great Band, Great song! I hope this tab helps someone play this tune.

Rythym Chords are: C, G, Am, F


INTRO:
e|------------------------------------------------------------------------|
B|------------------------------------------------------------------------|
G|------------------------------------------------------------------------|
D|----5-2---------------------------5-2-----------------------------------|
A|--3-----2-5-7---3-5---3---3-----3-----2-5-7---3-5---3---3---3-----------|
E|--------------5-----3---3-------------------5-----3---3---3-------------|


"Girl you're as cold as the town you're from yeah..."                   X 2
e|------------------------------------------||----------------------------|
B|------------------------------------------||----------------------------|
G|--9-7-5-4--4-5-7-9--4-5-7-99999--7-9-7-5--||---14 12 10 9--7-9-7-5------|
D|------------------------------------------||----------------------------|
A|------------------------------------------||----------------------------|
E|------------------------------------------||----------------------------|

e|------------------------------------------------------------------------|
B|------------------------------------------------------------------------|
G|------------------------------------------------------------------------|
D|----5-2-----------------------------------------------------------------|
A|--3-----2-5-7---3-5---3---3---------------------------------------------|
E|--------------5-----3---3-----------------------------------------------|


"Nothing could have lasted through the chaos you started..."
e|------------------------------------------------------------------------|
B|------------------------------------------------------------------------|
G|--9-7-5-4--4-5-7-9--4-5-7-9999--7-9-7-5--------14 12 10 9--7-9-7-5------|
D|------------------------------------------------------------------------|
A|------------------------------------------------------------------------|
E|------------------------------------------------------------------------|

e|------------------------------------------------------------------------|
B|------------------------------------------------------------------------|
G|--14 12 10 9--7-9-7-7-5-------------------------------------------------|
D|------------------------------------------------------------------------|
A|------------------------------------------------------------------------|
E|------------------------------------------------------------------------|

On the Break:
"Are all your Triumphs so empty?..."
Just strum the C Chord and palm mute


e|------------------------------------------------------------------------|
B|------------------------------------------------------------------------|
G|--9-7-5-4--4-5-7-9--4-5-7-9999--7-9-7-5--------14 12 10 9--7-9-7-5------|
D|------------------------------------------------------------------------|
A|------------------------------------------------------------------------|
E|------------------------------------------------------------------------|

e|------------------------------------------------------------------------|
B|------------------------------------------------------------------------|
G|--14 12 10 9-7-5-4--4-5-7-9--4-5-7-9999--7-9-7-5--14 12 10 9--7-9-7-5---|
D|------------------------------------------------------------------------|
A|------------------------------------------------------------------------|
E|------------------------------------------------------------------------|
"Yeah that's it..."
e|------------------------------------------------------------------------|
B|------------------------------------------------------------------------|
G|--14 12 10 9--7-9-7-5--14 12 10 9--7-9-7-5--14 12 10 9--12 15 17--------|
D|------------------------------------------------------------------------|
A|------------------------------------------------------------------------|
E|------------------------------------------------------------------------|


| /  slide up
|   slide down
| h  hammer-on
| p  pull-off
| ~  vibrato
| +  harmonic
| x  Mute note
===========================================================================

In addition to Chords / Tabs Marcy Playground - I Must Have Been Dreaming (First Version), we offer an excerpt from a random book.“It was easy to steal them and beg from him - he would not hesitate to give,” says Rhys.

LiveInternet