AllChordsTabs.com

Marty Friedman - Anvils (First Version) Chords and Tabs


Artists:
Chords and Tabs » M » Marty Friedman - Anvils (First Version)

Marty Friedman - Anvils (First Version)

Marty Friedman - Anvils (First Version) Chords / Tabs

Marty Friedman - Anvils First Version: chords and tabs for the song. Watch chords and tablatures for all songs of the singer (group) Marty Friedman. Other chords and tabs for the "Anvils" can find at the bottom of the page.

Hope you like it enjoy
-------------------------------------------|----------------------------
-------------------------------------------|----------------------------
-------------------------------------------|----------------------------
-------------------------------------------|----------------------------
-------------------------------------------|----------------------------
0-----7p0--8p0--0--0--7p0--0--8p0--0--5h7--|--0-----7p0--8p0--0--0------


----------------------|-------------------------------------------------
----------------------|-------------------------------------------------
----------------------|-------------------------------------------------
----------------------|-------------------------------------------------
----------------------|-------------------------------------------------
11p0--0--8p0--0--5p7--|--0-----7p0--8p0--0--0--7p0--0--8p0--0--5h7------


natural harmonic, dive with bar
|-----------------------------|-----------------------------------------
|-----------------------------|-----------------------------------------
|-----------------------------|-----3-----------------------------------
|-----7--------------3--------|-----------------------------------------
|-----7--7-----------3--3-----|-----------------------------------------
|--5--5--5--------1--1--1-----|-----------------------------------------


natural harmonics, slowly release and vibrate with bar
---------------------------||-------------------------------------------
---3-----------------------||------------------------------------3------
---3-----------------------||*--------------------5--4--2---------------
---3-----------------------||*--5-----4--2--4~~~-----------5--4---------
---------------------------||-------------------------------------------
---------------------------||-------------------------------------------


------------------------------|-----------------------------------------
------------------------------|-----------------------------------------
5--4--5--4--2-----------2--4--|--5-----4--2--4~~~--4-----2--0--3--------
---------------5--4--5--------|-----------------------------------------
------------------------------|-----------------------------------------
------------------------------|-----------------------------------------


------||--||------------------------------------------------------------
------||--||------------------------------------------------------------
~~~--*||--||*-----------------------------------------------------------
-----*||--||*-----------------------------------------------------------
------||--||---------1--------2--------5----4--2--7----4--2--5-----3----
------||--||---0--0--1--0--0--2--0--0--3---2--0--5---2--0--3-----1----


4x      guitar 2 doubles octave above
-------||---------------------------------------------------------------
-------||---------------------------------------------------------------
------*||---------------------------------------------------------------
------*||-------------------------------12~~~--12--11^------------------
---6---||---------14---------14----------------------------14--12-------
---6---||--12h15------12h15------12h15----------------------------------


-------|----------------------------------------------------------------
-------|----------------------------------------------------------------
-------|----------------------------------------------------------------
-------|-------------------------------16~~~-----16-----16--14h17p14----
14~~~--|---------14---------14------------------------------------------
-------|--12h15------12h15------12h15-----------------------------------


---------------------|--------------------------------------------------
---------------------|--------------------------------------------------
---------------------|--------------------------------------------------
12-----11-----12~~~--|-------------------------------12~~~--12--11------
---------------------|---------14---------14----------------------------
---------------------|--12h15------12h15------12h15---------------------


------------------------------------|-----------------------------------
------------------------------------|-----------------------------------
------------------------------------|-----------------------------------
^-----------------------------------|-----------------------------------
------14--12--14-----12h14p12109--|--10-----9h10p97-----9-----7------
------------------------------------|-----------------------------------


-------------------||---19p15---------15--19p15---------15--19p17p15----
-------------------||----------19p17-------------19p17------------------
-------------------||*--------------------------------------------------
-------------------||*--------------------------------------------------
h9p75-----52~~~--||---------------------------------------------------
-------------------||---------------------------------------------------


-------15---||--||---17p12---------12--17p12---------12--15p13p12-------
19p17-------||--||----------15p13-------------15p13---------------------
-----------*||--||*-----------------------------------------------------
-----------*||--||*-----------------------------------------------------
------------||--||------------------------------------------------------
------------||--||------------------------------------------------------


-------12---||--||---17p14---------14--17p14---------14--17p15p14-------
15p13-------||--||----------17p15-------------17p15---------------------
-----------*||--||*-----------------------------------------------------
-----------*||--||*-----------------------------------------------------
------------||--||------------------------------------------------------
------------||--||------------------------------------------------------


-------14---||--||---19p15---------15--19p15---------15--19p17p15-------
17p15-------||--||----------19p17-------------19p17---------------------
-----------*||--||*-----------------------------------------------------
-----------*||--||*-----------------------------------------------------
------------||--||------------------------------------------------------
------------||--||------------------------------------------------------


-------15---||--18p15---------15--20p15---------15--18p17p15------------
19p17-------||---------18p17-------------18p17----------------18p17-----
-----------*||----------------------------------------------------------
-----------*||----------------------------------------------------------
------------||----------------------------------------------------------
------------||----------------------------------------------------------


15--|--20p17---------17--22p17---------17--20p19p17---------17--|-------
----|---------20p19-------------20p19----------------20p19------|-------
----|-----------------------------------------------------------|-------
----|-----------------------------------------------------------|-------
----|-----------------------------------------------------------|-------
----|-----------------------------------------------------------|-------


19^~~~--20^~~~--22^~~~--22^~~~--22^--22--22^--|-------------------------
----------------------------------------------|-------------------------
----------------------------------------------|-------------------------
----------------------------------------------|-------------------------
----------------------------------------------|-------------------------
----------------------------------------------|-------------------------


outro, repeat with whammy bar dives
---------------------------------|--------------------------------------
---------------------------------|--------------------------------------
2--------------------------------|--------------------------------------
2--------------------------------|--3-----------------------------------
0--------------3-----6-----2-----|--1--------------3-----6--------------
---------0--0--1-----4-----0-----|-----------0--0--1-----4-----0--------


---------------||-------------------------------------------------------
---------------||-------------------------------------------------------
---------------||-------------------------------------------------------
---------------||-------------------------------------------------------
---------6-----||-------------------------------------------------------
0-----0--6~~~--||-------------------------------------------------------
FreakMen

In addition to Chords / Tabs Marty Friedman - Anvils (First Version), we offer an excerpt from a random book.But at five o'clock she hurried somewhere and pushed me aside, explaining that she had to go alone.

LiveInternet