AllChordsTabs.com

Lenny Kravitz - It Aint Over Til Its Over (First Version) Chords and Tabs


Artists:
Chords and Tabs » L » Lenny Kravitz - It Aint Over Til Its Over (First Version)

Lenny Kravitz - It Aint Over Til Its Over (First Version)

Lenny Kravitz - It Aint Over Til Its Over (First Version) Chords / Tabs

Lenny Kravitz - It Aint Over Til Its Over First Version: chords and tabs for the song. Watch chords and tablatures for all songs of the singer (group) Lenny Kravitz. Other chords and tabs for the "It Aint Over Til Its Over " can find at the bottom of the page.

Here's a pretty funky song for y'all!
There was already a pretty good tab for this song in the
archives, but I thought I'd complement that one with some
things that were missing. I'm however not claiming this tab
is 100% accurate either, but hey it's for free isn't it...

The song is pretty basic. It uses the same chords for both
verses and chorus. Try to find the correct rhythm/strumming
pattern. The solo is sweet but really simple. I also
included the sitar part arranged for guitar. It changes a
bit in the end every time it's played, so feel free to
improvise...



Verse/Chorus
C#                           C#maj7
e||-4--x-4-4--x-4--4--x-4-4--x-|-4--x-4-4--x-4--4--x-4-4--x-|
B||-6--x-6-6--x-6--6--x-6-6--x-|-6--x-6-6--x-6--6--x-6-6--x-|
G||*6--x-6-6--x-6--6--x-6-6--x-|-5--x-5-5--x-5--5--x-5-5--x-|
D||*6--x-6-6--x-6--6--x-6-6--x-|-6--x-6-6--x-6--6--x-6-6--x-|
A||-4--x-4-4--x-4--4--x-4-4--x-|-4--x-4-4--x-4--4--x-4-4--x-|
E||----------------------------|----------------------------|

C#7sus2                      F#          F#m
|-4--x-4-4--x-4--4--x-4-4--x-|-2--x-2-2--x-2--2--x-2-2--x-||
|-4--x-4-4--x-4--4--x-4-4--x-|-2--x-2-2--x-2--2--x-2-2--x-||
|-4--x-4-4--x-4--4--x-4-4--x-|-3--x-3-3--x-2--2--x-2-2--x*||
|-6--x-6-6--x-6--6--x-6-6--x-|-4--x-4-4--x-4--4--x-4-4--x*||
|-4--x-4-4--x-4--4--x-4-4--x-|-4--x-4-4--x-4--4--x-4-4--x-||
|----------------------------|-2--x-2-2--x-2--2--x-2-2--x-||


Verse 1:
Here we are still together
We are one
So much time wasted
Playing games with love

Chorus:
So many tears I've cried
So much pain inside
But baby it ain't over 'til it's over
So many years we've tried
To keep our love alive
But baby it ain't over 'til it's over

Verse 2:
How many times
Did we give up
But we always worked things out
And all my doubts and fears
Kept me wondering, yeah
If I'd always, always be in love

Chorus:
So many tears I've cried
So much pain inside
But baby it ain't over 'til it's over
So many years we've tried
And kept our love alive
'Cause baby it ain't over 'til it's over


Guitarsolo
A                   B                                 A
full
|----------------)--|------------16-------------------|----------------full-|
|--------------19---|-19--19-19------19--------14-17-|----14-----------)--|
|-------------------|------------------------16-------|----------------16---|
|-------------------|---------------------------------|---------------------|
|-------------------|---------------------------------|---------------------|
|-------------------|---------------------------------|---------------------|

B                               A
|-------------------------------|----------------full--------------|
|------------14------------full-|------------------)---------------|
|-16--16-16------16---------)--|-12--12-12--10--13---13---12-10---|
|--------------------------15---|----------------------------------|
|-------------------------------|----------------------------------|
|-------------------------------|----------------------------------|

B                           G
|---------------------------|-----------------------------------------------|
|---------------------------|--12h13p12--11h12p11--10h11p10--9h10p9--8h9p8--|
|-10--10-10--12--10--------|-----------------------------------------------|
|---------------------------|-----------------------------------------------|
|---------------------------|-----------------------------------------------|
|---------------------------|-----------------------------------------------|

D         E             N.C.
|-------10--10/12-------|-----------------|
|-----------------------|-----------------|
|-----------------------|-----------------|
|-----------------------|-----------------|
|-----------------------|-----------------|
|-----------------------|-----------------|


Final chorus
(Sitar arr. for guitar, repeat ad-lib.)
C#                    C#maj7               C#7sus2              F#        F#m
||---------------------|--------------------|--------------------|-------------------|
||---------------------|--------------------|--------------------|-------------------|
||*6----------6h8--6---|-5------------------|----------------6---|-------------------|
||*--------------------|----------6----8----|-9----------------8-|---------6---------|
||---------------------|--------------------|--------------------|-------9-----------|
||---------------------|--------------------|--------------------|-------------------|

C#                    C#maj7               C#7sus2               F#        F#m
|---------------------|--------------------|---------------------|-------------------||
|---------------------|--------------------|---------------------|-------------------||
|-6----------6h8--6---|-5------------------|---------------------|------------------*||
|---------------------|----------6----8----|-9------------9--6-8-|---------6--------*||
|---------------------|--------------------|---------------------|-------9-----------||
|---------------------|--------------------|---------------------|-------------------||


Chorus:
So many tears I've cried
So much pain inside
Baby it ain't over 'til it's over
So many years we've tried
And kept our love alive
'Cause baby it ain't over 'til it's over

(Repeat)






And that's all there is too it...
/GN

In addition to Chords / Tabs Lenny Kravitz - It Aint Over Til Its Over (First Version), we offer an excerpt from a random book.- Here! Let's go! You have a stupid smartphone ... Josef once again looked into the water with caution.

LiveInternet