AllChordsTabs.com

Jewel - Emily (First Version) Chords and Tabs


Artists:
Chords and Tabs » J » Jewel - Emily (First Version)

Jewel - Emily (First Version)

Jewel - Emily (First Version) Chords / Tabs

Jewel - Emily First Version: chords and tabs for the song. Watch chords and tablatures for all songs of the singer (group) Jewel. Other chords and tabs for the "Emily " can find at the bottom of the page.

There are other ways to play this, but with standard tuning, it's easy to do with the open strings.

[Intro/Verse]
e|-------------------|-----------------|-----------------|-----------------|
B|-------------------|-----------------|-----------------|-----------------|
G|-------------------|-----------------|-----------------|-----------------|
D|---0---0---0---0---|---0---0---0---0-|---0---0---0---0-|--0---0---0---0--|
A|-1---1---1---1---1-|-0---0---0---0---|-----------------|-----------------|
E|-------------------|-----------------|-3---3---3---3---|-1---1---1---1---|

Woke up to find
I lost my mind
Lost heart, lost nerve
I lost my favourite word
Emily
I take my cigarettes
I give 'em a smoke
Oh god
My heart feels froze
I've lost something it seems
I've misplaced my favorite thing
Emily

[Chorus]
e|------------------|---------------|-----------------|----------------|----------------|------------------|
B|------------------|---------------|-----------------|----------------|----------------|------------------|
G|----0---0---0---0-|-0---0---0---0-|-----------------|--0---0---0---0-|--0---0---0---0-|------------------|
D|------------------|---------------|-----------------|----------------|----------------|---0---0---0---0--|
A|--6---6---6---6---|-5---5---5---5-|---0---0---0---0-|-6---6---6---6--|-5---5---5---5--|------------------|
E|------------------|---------------|-3---3---3---3---|----------------|----------------|-1---1---1---1----|

e|------------------|---------------|-----------------|----------------|----------------|------------------|
B|------------------|---------------|-----------------|----------------|----------------|------------------|
G|----0---0---0---0-|-0---0---0---0-|-----------------|--0---0---0---0-|--0---0---0---0-|------------------|
D|------------------|---------------|-----------------|----------------|----------------|---0---0---0---0--|
A|--6---6---6---6---|-5---5---5---5-|---0---0---0---0-|-6---6---6---6--|-5---5---5---5--|------------------|
E|------------------|---------------|-3---3---3---3---|----------------|----------------|-1---1---1---1----|

e|-----------------|---------------------------------------------------------------------------------|
B|-----------------|---------------------------------------------------------------------------------|
G|---0---0---0---0-|---------------------------------------------------------------------------------|
D|-----------------|---0---0---0---0---0---0---0---0---0---0---0---0---------------------------------|
A|-6---6---6---6---|-0---0---0---0---0---0---0---0---0---0---0---0-----------------------------------|
E|-----------------|---------------------------------------------------------------------------------|

Where does love go
If it can't find a home?
One moment here, then gone
With no forwarding address
Love no longer has a house
Or residence in flesh

[Verse]
e|-------------------|-----------------|-----------------|-----------------|
B|-------------------|-----------------|-----------------|-----------------|
G|-------------------|-----------------|-----------------|-----------------|
D|---0---0---0---0---|---0---0---0---0-|---0---0---0---0-|--0---0---0---0--|
A|-1---1---1---1---1-|-0---0---0---0---|-----------------|-----------------|
E|-------------------|-----------------|-3---3---3---3---|-1---1---1---1---|

Take the keys
I get in the car
To out run this
Man I'd have to go real far
Where mercy wears lace
And bottles are thieves
Which of these took you from me?
Emily

I face myself
But there's this draft inside
Parts of me drowned
In perpetual tide
I wanna call names
I wanna throw things around
But no bar can buy
Forgiveness another round for
Emily

[Chorus]
e|------------------|---------------|-----------------|----------------|----------------|------------------|
B|------------------|---------------|-----------------|----------------|----------------|------------------|
G|----0---0---0---0-|-0---0---0---0-|-----------------|--0---0---0---0-|--0---0---0---0-|------------------|
D|------------------|---------------|-----------------|----------------|----------------|---0---0---0---0--|
A|--6---6---6---6---|-5---5---5---5-|---0---0---0---0-|-6---6---6---6--|-5---5---5---5--|------------------|
E|------------------|---------------|-3---3---3---3---|----------------|----------------|-1---1---1---1----|

e|------------------|---------------|-----------------|----------------|----------------|------------------|
B|------------------|---------------|-----------------|----------------|----------------|------------------|
G|----0---0---0---0-|-0---0---0---0-|-----------------|--0---0---0---0-|--0---0---0---0-|------------------|
D|------------------|---------------|-----------------|----------------|----------------|---0---0---0---0--|
A|--6---6---6---6---|-5---5---5---5-|---0---0---0---0-|-6---6---6---6--|-5---5---5---5--|------------------|
E|------------------|---------------|-3---3---3---3---|----------------|----------------|-1---1---1---1----|

e|-----------------|---------------------------------------------------------------------------------|
B|-----------------|---------------------------------------------------------------------------------|
G|---0---0---0---0-|---------------------------------------------------------------------------------|
D|-----------------|---0---0---0---0---0---0---0---0---0---0---0---0---------------------------------|
A|-6---6---6---6---|-0---0---0---0---0---0---0---0---0---0---0---0-----------------------------------|
E|-----------------|---------------------------------------------------------------------------------|

I go to the bedroom
Turn on the light
It's like an empty altar
No angel in sight
Religion with no temple
No place to take my worship to
No god for my eyes to see
No fruit to lay at the feet of
Emily

[Verse]
e|-------------------|-----------------|-----------------|-----------------|
B|-------------------|-----------------|-----------------|-----------------|
G|-------------------|-----------------|-----------------|-----------------|
D|---0---0---0---0---|---0---0---0---0-|---0---0---0---0-|--0---0---0---0--|
A|-1---1---1---1---1-|-0---0---0---0---|-----------------|-----------------|
E|-------------------|-----------------|-3---3---3---3---|-1---1---1---1---|

Gone
Gone

In addition to Chords / Tabs Jewel - Emily (First Version), we offer an excerpt from a random book.Making arrows using wood, nails, goose feathers and wire was even easier.

LiveInternet