AllChordsTabs.com

Lifehouse - Hurricane (First Version) Chords and Tabs


Artists:
Chords and Tabs » L » Lifehouse - Hurricane (First Version)

Lifehouse - Hurricane (First Version)

Lifehouse - Hurricane (First Version) Chords / Tabs

Lifehouse - Hurricane First Version: chords and tabs for the song. Watch chords and tablatures for all songs of the singer (group) Lifehouse. Other chords and tabs for the "Hurricane " can find at the bottom of the page.

Intro:
d|---------------------------------------------------------------|
a|-7-7-7-7--7-7-7-8-8-8-8-8--------------------------------------|
f|-7-7-7-7--7-7-7-7-7-7-7-7--------------------------------------|
C|-7-7-7-7--7-7-7-7-7-7-7-7--------------------------------------|
G|-5-5-5-5--5-5-5-5-5-5-5-5--------------------------------------|
C|---------------------------------------------------------------|

d|---------------------------------------------------------------|
a|---------------------------------------------------------------|
f|---------------------------------------------------------------|
C|---0-----0-----0---0-----0-----0-------------------------------|
G|-----9-----9---------9-----9-----------------------------------|
C|-0-----0-----0---0-----0-----0---------------------------------|

Verse:
d|--------------------------------------------------------------------|
a|--------------------------------------------------------------------|
f|--------------------------------------------------------------------|
C|---0-----0-----0---0-----0-----0-------0-----0-----0---0-----0----0-|
G|-----9-----9---------9-----9-----9-------9-----9---------5-----5----|
C|-0-----0-----0---0-----0-----7-----7-9-----9-----9---5-----5-----5--|

Chorus:
D                 D                 Bm       G
d|---------------------------------------------------------------|
a|-77777777-77777777-77777777-77777777---------------------------|
f|-77777777-77777777-77777777-77777777---------------------------|
C|-77777777-77777777-77777777-77777777-99999999-55555555---------|
G|-55555555-55555555-55555555-55555555-99999999-55555555---------|
C|-00000000-00000000-00000000-00000000-99999999-55555555---------|

Bridge:
F - G - D - D x2
F - G - A - A

In addition to Chords / Tabs Lifehouse - Hurricane (First Version), we offer an excerpt from a random book.Everyone in the audience looked at the pleased Raf, solemnly holding a T-shirt like a flag.

LiveInternet