AllChordsTabs.com

Joan Jett - I Love Rock N Roll (First Version3) Chords and Tabs


Artists:
Chords and Tabs » J » Joan Jett - I Love Rock N Roll (First Version3)

Joan Jett - I Love Rock N Roll (First Version3)

Joan Jett - I Love Rock N Roll (First Version3) Chords / Tabs

Joan Jett - I Love Rock N Roll First Version3: chords and tabs for the song. Watch chords and tablatures for all songs of the singer (group) Joan Jett. Other chords and tabs for the "I Love Rock N Roll" can find at the bottom of the page.

[Intro]
e|---------------------------------------------------------------------------|
B|---------------------------------------------------------------------------|
G|---------------------------------------------------------------------------|
D|2-2---2-2-2-------------------------2-2--2-2-2----------------2-2----------|
A|2-2---2-2-2-5---7-7---9-9-7-5-------2-2--2-2-2-5---7-7---9-7--2-2----------|
E|0-0---0-0-0-3---5-5---7-7-5-3-------0-0--0-0-0-3---5-5---7-5--0-0----------|

[Verse] Same for first 2 verses
e|---------------------------------------------------------------------------|
B|------5p3---------------------5p3---------------------5p3------------------|
G|----------4-2-0-------------------4-2-0---------------------4-2-0----------|
D|2-2---------------2-2---2-2---------------2-2------------------------------|
A|2-2---------------2-2---2-2---------------2-2---9-9-----------------7-7----|
E|0-0---------------0-0---0-0---------------0-0---7-7-----------------5-5----|

e|----------------------------------|
B|----------------------------------|
G|----------------------------------|
D|------2-2-------------------------|
A|9-9---2-2---ho7---9-9-9-9-9-9-9-7-|
E|7-7---0-0---ho5---7-7-7-7-7-7-7-5-|

[Chorus]
e|---------------------------------------------------------------------------|
B|---------------------------------------------------------------------------|
G|---------------------------------------------------------------------------|
D|2-2---2-2-2-----------------------------------------2-2-2------------------|
A|2-2---2-2-2-5---7-7---9-9---2-2---2-2-2-5---7-7---9-2-2-2------------------|
E|0-0---0-0-0-3---5-5---7-7---0-0---0-0-0-3---5-5---7-0-0-0------------------|

[Verse 3]
e|------------------------------------------------0--------------------------|
B|------5p3-------------------------------------------0----------------------|
G|------------4-2-0---------------------------1-4---1---1-----------------4--|
D|--------------------2-------------------2-4-------------4h2-4---------2----|
A|2-2-----------------2-------------wb2-------------------------2-2-2h4------|
E|0-0-----------------0---3-3p2-0---wb3--------------------------------------|

e|-------------------------------------------------------------------|
B|-------------------------------------------------------------------|
G|-------------------------------------------------------------------|
D|2-2-2p1-1-1-1------------------------------------------------------|
A|--------------h4-4-4-4p2-2-2-2p0-0-0-0-------------------------ho7-|
E|---------------------------------------h4-4-4-4-p2-2-2-2p0-0-0-ho5-|

[Outro] There's a drum solo between Verse 3 and Outro
e|----------------------------------------------------------|
B|----------------------------------------------------------|
G|----------------------------------------------------------| x3
D|2-2---2-2-2-----------------2-2---2-2-2-------------2-2-2-|
A|2-2---2-2-2-5---7-7---9-9---2-2---2-2-2-5---7-7---9-2-2-2-|
E|0-0---0-0-0-3---5-5---7-7---0-0---0-0-0-3---5-5---7-0-0-0-|

e|----------------------------------------------------------|
B|----------------------------------------------------------|
G|---------------------------------------------------->->---|
D|2-2---2-2-2-----------------2-2---2-2-2-------------2-2---|
A|2-2---2-2-2-5---7-7---9-9---2-2---2-2-2-5---7-7---9-2-2---|
E|0-0---0-0-0-3---5-5---7-7---0-0---0-0-0-3---5-5---7-0-0---|

In addition to Chords / Tabs Joan Jett - I Love Rock N Roll (First Version3), we offer an excerpt from a random book.Back in school, when he was just starting his starry way, I went crazy with this voice.

LiveInternet