AllChordsTabs.com

Killswitch Engage - My Curse (First Version) Chords and Tabs


Artists:
Chords and Tabs » K » Killswitch Engage - My Curse (First Version)

Killswitch Engage - My Curse (First Version)

Killswitch Engage - My Curse (First Version) Chords / Tabs

Killswitch Engage - My Curse First Version: chords and tabs for the song. Watch chords and tablatures for all songs of the singer (group) Killswitch Engage. Other chords and tabs for the "My Curse" can find at the bottom of the page.

-Fixed my typos and changed a few things.  Sounds much better now.  Enjoy-

Order of song sections and tablature symbols on bottom of the page.

Intro         /           Chorus (Distortion only)
0:00 - 0:33               1:22 - 1:38    2:11 - 2:27
Two times - Clean tone
Two times - Distortion  (Palm mute with distortion only)
(Repeat each section Twice = One time)

Guitar 1 (Guitar 2 doesn't come in until 0:17)
x 2             x 2           x 2
e|----------------|-------------|-------------------------|
B|--------10------|-------6-----|-------6-----------5---6-|
G|---10--------10-|---5-------5-|---5-------5---5---------|
D|-8----8----8----|-8---8---8---|-7---7---7---7---7---7---|
A|-x--------------|-------------|-------------------------|
E|-x--------------|-------------|-------------------------|
.    .    .      .   .   .     .   .   .   .   .   .
(Only mute strike on very beginning)

Guitar 2
e|---------------|---------------|-----------------|
B|---------------|---------------|-----------------|
G|---------------|---------------|-----------------|
D|---------------|---------------|-----------------|
A|-8-8-8-8-8-8-8-|-5-5-5-5-5-5-5-|-0-0-0-0-0-0-12-|
E|-8-8-8-8-8-8-8-|-5-5-5-5-5-5-5-|-0-0-0-0-0-0-12-|
. . . . . .     . . . . . .     . . . . . .


Main Riff
0:33 - 1:05     1:38 - 1:54
Four times      Two Times
(Order:  1, 2, 1, 3 = One Time)

1                          2                  3
e|----------------------------------|------------------|------------------|
B|----------------------------------|------------------|------------------|
G|----------------------------------|------------------|------------------|
D|-7-----5--------------------------|------------------|------------------|
A|-5-----3--------------------------|----5-------------|----3-------------|
E|---0-0---0-0-/6-0-0-5-0-0-3p0-0-0-|-/7---7-6-5-0-3/5-|-/5---5-4-3-0-5+~-|
. .   . .    . .   . .     . .

Guitar 2
(Comes in at 0:37, Plays this section, Then play same as Guitar 1)
e|----------------------------------|------------------|
B|----------------------------------|------------------|
G|----------------------------------|------------------|
D|-7--------------------------------|------------------|
A|-5--------------------------------|----3-------------|
E|-0--------------------------------|-/5---5-4-3-0-5+~-|
^Hold


Pre-Chorus
1:05 - 1:22       1:54 - 2:11
(Order:  1, 2, 1, 3, 1, 2, 1, 4)

1                     2                           3
e|-----------------|-------------------------|----------------------------|
B|-----------------|-------------------------|----------------------------|
G|-----------------|-------------------------|----------------------------|
D|-----------------|-------------------------|----------------------------|
A|-----------------|-------------------------|--------------5-------------|
E|-000-000-000-000-|-3p0-0-0-0-0-3p0-0-0-0-0-|-3p0-0-0-0-/7---7-6-5-0-5+~-|
... ... ... ...       . . . .     . . . .       . . .
4
e|-------------------------------------|
B|-------------------------------------|
G|-------------------------------------|
D|-------------------------------------|
A|--------------5------------5---------|
E|-3p0-0-0-0-/7---7-6-5-0-/7---7-6-5-0-|
. . .

Interlude
2:27 - 2:44
e|-Don't think there is a guitar part here.  I could be deaf, dumb, and-|
B|-wrong though.  E-mail me let me know.--------------------------------|
G|----------------------------------------------------------------------|
D|----------------------------------------------------------------------|
A|----------------------------------------------------------------------|
E|----------------------------------------------------------------------|


Riff A              /                      Outro
2:44 - 3:01                          3:16 to 4:05 (End)
Guitar 1 - Timed with Guitar 2
2 Times
Part A         Part B
e|--------------|---------------|    For Outro (3:16 - 4:05),
B|--------------|---------------|    play Part A 6 times,
G|-103-2-------|-10-----10-----|    then Part B 2 times.
D|--------3-----|----8-7----8-7-|    Repeats as song fades
A|----------5p0-|---------------|    out.
E|--------------|---------------|

Guitar 2
2 Times
e|--------------|----------|-------------|----------|--------------|
B|--------------|----------|-------------|----------|--------------|
G|--------------|-Guitar-1-|-------------|-Guitar-1-|--------------|
D|--------------|--Part-A--|-------------|--Part-A--|--------------|
A|--------------|----------|-------------|----------|--------------|
E|-888888888----|----------|-555555555---|----------|-000000000----|
.........                 .........                .........
e|----------|-----------|----------|
B|----------|-----------|----------|
G|-Guitar-1-|-----------|-Guitar-1-|
D|--Part-A--|-----------|--Part-B--|
A|----------|-----------|----------|
E|----------|-000000000-|----------|
.........

Interlude 2 - Not sure if correct.  Sounds close.  Let me know.
3:01 - 3:16
Guitar 1
2 Times                                (Don't play second time)
e|-------------0----|------------0----||-----------0-----|
B|------------------|-----------------||-----------------|
G|-------10---------|------10---------||------10---------|
D|----------10---10-|---------10---10-||---------10---10-|
A|---8--------------|---8-------------||---8-------------|
E|-8----------------|-5---------------||-0---------------|

Guitar 2
2 Times                                (Don't play second time)
e|------------------|-----------------||-----------------|
B|------------------|-----------------||-----------------|
G|------------------|-----------------||-----------------|
D|------------------|-----------------||-----------------|
A|-8----------------|-5---------------||-0---------------|
E|-8----------------|-5---------------||-0---------------|


Order of Song Sections:

Intro/Chorus  0:00 - 0:33
-Guitar 2   0:17 - 0:33
Main Riff     0:33 - 1:05
Pre-chorus    1:05 - 1:22
Intro/Chorus  1:22 - 1:38
Main Riff     1:38 - 1:54
Pre-chorus    1:54 - 2:11
Chorus        2:11 - 2:27
Interlude 1   2:27 - 2:44
Riff A/Outro  2:44 - 3:01
Interlude 2   3:01 - 3:16
Riff A/Outro  3:16 - 4:05 (End)


| /  slide up
|   slide down
| h  hammer-on
| p  pull-off
| ~  vibrato
| +  harmonic
| x  Mute note

In addition to Chords / Tabs Killswitch Engage - My Curse (First Version), we offer an excerpt from a random book.Hell, I was just beside myself with happiness - and all thanks to my personal guardian angel.

LiveInternet