AllChordsTabs.com

Jimmy Eat World - Always Be (First Version) Chords and Tabs


Artists:
Chords and Tabs » J » Jimmy Eat World - Always Be (First Version)

Jimmy Eat World - Always Be (First Version)

Jimmy Eat World - Always Be (First Version) Chords / Tabs

Jimmy Eat World - Always Be First Version: chords and tabs for the song. Watch chords and tablatures for all songs of the singer (group) Jimmy Eat World. Other chords and tabs for the "Always Be" can find at the bottom of the page.

[Intro]
Guitar 1: (all palm muted)
e|-------------------------------------------------|----------------------------------|
B|-------------------------------------------------|--------(This section twice)------|
G|-----5-------5------5--------5-------5-------5---|----------------------------------|
D|---7---7---7--7---7---7----7---7---7---7---7---7-|-----5-------5-------5-------5----|
A|-8-------8------8-------8--------5-------5-------|---8---8---8---8---8---8---8---8--|
E|-------------------------------------------------|-6-------6-------6-------6--------|


Guitar 2: (all palm muted)
e|---------8-8-8----------8-8-8----------8-8-8------8---------8----------------|
B|-----10--------------10-------------10---------10---10---10---10---10-10-10--|
G|---10-------------10-------------10---------10-------------------------------|
D|-----------------------------------------------------------------------------|
A|-----------------------------------------------------------------------------|
E|-----------------------------------------------------------------------------|

e|---------------------------------------------------------------------------|
B|------8-8-8---------8-8-8---------8-8-8---------8--------8-----------------|
G|---10------------10------------10------------10---10--10---10---10-10-10---|
D|-8-------------8-------------8-------------8-------------------------------|
A|---------------------------------------------------------------------------|
E|---------------------------------------------------------------------------|


[Verse 1]
Guitar 1:
e|---------------------------------------------------------------------------|
B|---------------------------------------------------------------------------|
G|------5-----5-----5-----5-----5-----5-----5-----5-----5-----5-----5-----5--|
D|----7-----7-----7-----7-----7-----7-----7-----7-----8-----8-----8-----8----|   x2
A|-8------8-----8-----8-----5-----5-----5-----5-----6-----6-----6-----6------|
E|---------------------------------------------------------------------------|

Guitar 2:
e|-1--1--1--1--1--1--1--1--1--1--1--1--1--1--1--1--1--1--1--1--1--1--1--1--1--1--1--1-|
B|-1--1--1--1--1--1--1--1--3--3--3--3--3--3--3--3--1--1--1--1--1--1--1--1--1--1--1--1-|
G|-2--2--2--2--2--2--2--2--2--2--2--2--2--2--2--2--3--3--3--3--3--3--3--3--3--3--3--3-|   x2
D|-3--3--3--3--3--3--3--3--0--0--0--0--0--0--0--0--3--3--3--3--3--3--3--3--3--3--3--3-|
A|-3--3--3--3--3--3--3--3--------------------------1--1--1--1--1--1--1--1--1--1--1--1-|
E|-3--3--3--3--3--3--3--3-------------------------------------------------------------|

[Pre-Chorus]
Guitar 1:
(G)               (Amin7)        (F)
e|-----------------5-5-5-5-5-5-5-5-----------------|
B|-8-8-8-8-8-8-8-8-6-6-6-6-6-6-6-6-6-6-6-6-6-6-6-6-|
G|-5-5-5-5-5-5-5-5-5-5-5-5-5-5-5-5-7-7-7-7-7-7-7-7-|
D|-5-5-5-5-5-5-5-5-7-7-7-7-7-7-7-7-8-8-8-8-8-8-8-8-|
A|-7-7-7-7-7-7-7-7-5-5-5-5-5-5-5-5-8-8-8-8-8-8-8-8-|
E|-8-8-8-8-8-8-8-8-----------------6-6-6-6-6-6-6-6-|

Guitar 2:

e|-0-0-0-0-0-0-0-0-1-1-1-1-1-1-1-1-1-1-1-1-------1-|
B|-1-1-1-1-1-1-1-1-3-3-3-3-3-3-3-3-1-1-1-1---1-3---|
G|-0-0-0-0-0-0-0-0-2-2-2-2-2-2-2-2-3-3-3-3-3-------|
D|-2-2-2-2-2-2-2-2-0-0-0-0-0-0-0-0-3-3-3-3---------|
A|-3-3-3-3-3-3-3-3-----------------1-1-1-1---------|
E|-------------------------------------------------|


[Chorus]
Guitar 1:
(C)              (Amin7)               (F)      (G)
e|-5-5-5-5-5-5-5-5-5-5-5-5-5-5-5-5-------------------------|
B|-6-6-6-6-6-6-6-6-6-6-6-6-6-6-6-6-6-6-6-6-6-6-6-6-8-8-8-8-|
G|-5-5-5-5-5-5-5-5-5-5-5-5-5-5-5-5-7-7-7-7-7-7-7-7-5-5-5-5-|
D|-7-7-7-7-7-7-7-7-7-7-7-7-7-7-7-7-8-8-8-8-8-8-8-5-5-5-5-5-|  x2
A|-8-8-8-8-8-8-8-8-5-5-5-5-5-5-5-5-8-8-8-8-8-8-8-8-7-7-7-7-|
E|---------------------------------6-6-6-6-6-6-6-6-8-8-8-8-|

Guitar 2:

e|-8--8--8--8--8--8--8--8--5-5-5-5-5-5-5-5-1-1-1-1-1-1-1-1-1-1-1-1-|
B|-8--8--8--8--8--8--8--8--6-6-6-6-6-6-6-6-1-1-1-1-1-1-1-1-1-1-1-1-|
G|-10-10-10-10-10-10-10-10-5-5-5-5-5-5-5-5-3-3-3-3-3-3-3-3-3-3-3-3-|   x2
D|-10-10-10-10-10-10-10-10-7-7-7-7-7-7-7-7-3-3-3-3-3-3-3-3-3-3-3-3-|
A|-8--8--8--8--8--8--8--8--5-5-5-5-5-5-5-5-1-1-1-1-1-1-1-1-1-1-1-1-|
E|-----------------------------------------------------------------|


[Verse 2]

Guitar 1:
e|---------------------------------------------------------------------------|
B|---------------------------------------------------------------------------|
G|------5-----5-----5-----5-----5-----5-----5-----5-----5-----5-----5-----5--|
D|----7-----7-----7-----7-----7-----7-----7-----7-----8-----8-----8-----8----|   x2
A|-8------8-----8-----8-----5-----5-----5-----5-----6-----6-----6-----6------|
E|---------------------------------------------------------------------------|

Guitar 2:
e|-1--1--1--1--1--1--1--1--1--1--1--1--1--1--1--1--1--1--1--1--1--1--1--1--1--1--1--1-|
B|-1--1--1--1--1--1--1--1--3--3--3--3--3--3--3--3--1--1--1--1--1--1--1--1--1--1--1--1-|
G|-2--2--2--2--2--2--2--2--2--2--2--2--2--2--2--2--3--3--3--3--3--3--3--3--3--3--3--3-|   x2
D|-3--3--3--3--3--3--3--3--0--0--0--0--0--0--0--0--3--3--3--3--3--3--3--3--3--3--3--3-|
A|-3--3--3--3--3--3--3--3--------------------------1--1--1--1--1--1--1--1--1--1--1--1-|
E|-3--3--3--3--3--3--3--3-------------------------------------------------------------|

[Pre-Chorus]
Guitar 1:
(G)               (Amin7)        (F)
e|-----------------5-5-5-5-5-5-5-5-----------------|
B|-8-8-8-8-8-8-8-8-6-6-6-6-6-6-6-6-6-6-6-6-6-6-6-6-|
G|-5-5-5-5-5-5-5-5-5-5-5-5-5-5-5-5-7-7-7-7-7-7-7-7-|
D|-5-5-5-5-5-5-5-5-7-7-7-7-7-7-7-7-8-8-8-8-8-8-8-8-|
A|-7-7-7-7-7-7-7-7-5-5-5-5-5-5-5-5-8-8-8-8-8-8-8-8-|
E|-8-8-8-8-8-8-8-8-----------------6-6-6-6-6-6-6-6-|

Guitar 2:

e|-0-0-0-0-0-0-0-0-1-1-1-1-1-1-1-1-1-1-1-1-------1-|
B|-1-1-1-1-1-1-1-1-3-3-3-3-3-3-3-3-1-1-1-1---1-3---|
G|-0-0-0-0-0-0-0-0-2-2-2-2-2-2-2-2-3-3-3-3-3-------|
D|-2-2-2-2-2-2-2-2-0-0-0-0-0-0-0-0-3-3-3-3---------|
A|-3-3-3-3-3-3-3-3-----------------1-1-1-1---------|
E|-------------------------------------------------|

[Chorus]
Guitar 1:
(C)              (Amin7)               (F)      (G)
e|-5-5-5-5-5-5-5-5-5-5-5-5-5-5-5-5-------------------------|
B|-6-6-6-6-6-6-6-6-6-6-6-6-6-6-6-6-6-6-6-6-6-6-6-6-8-8-8-8-|
G|-5-5-5-5-5-5-5-5-5-5-5-5-5-5-5-5-7-7-7-7-7-7-7-7-5-5-5-5-|
D|-7-7-7-7-7-7-7-7-7-7-7-7-7-7-7-7-8-8-8-8-8-8-8-5-5-5-5-5-|  x2
A|-8-8-8-8-8-8-8-8-5-5-5-5-5-5-5-5-8-8-8-8-8-8-8-8-7-7-7-7-|
E|---------------------------------6-6-6-6-6-6-6-6-8-8-8-8-|

Guitar 2:

e|-8--8--8--8--8--8--8--8--5-5-5-5-5-5-5-5-1-1-1-1-1-1-1-1-1-1-1-1-|
B|-8--8--8--8--8--8--8--8--6-6-6-6-6-6-6-6-1-1-1-1-1-1-1-1-1-1-1-1-|
G|-10-10-10-10-10-10-10-10-5-5-5-5-5-5-5-5-3-3-3-3-3-3-3-3-3-3-3-3-|   x2
D|-10-10-10-10-10-10-10-10-7-7-7-7-7-7-7-7-3-3-3-3-3-3-3-3-3-3-3-3-|
A|-8--8--8--8--8--8--8--8--5-5-5-5-5-5-5-5-1-1-1-1-1-1-1-1-1-1-1-1-|
E|-----------------------------------------------------------------|


[Bridge]

Guitar 1:
(G)               (Amin7)        (F)
e|-----------------5-5-5-5-5-5-5-5-----------------|
B|-8-8-8-8-8-8-8-8-6-6-6-6-6-6-6-6-6-6-6-6-6-6-6-6-|
G|-5-5-5-5-5-5-5-5-5-5-5-5-5-5-5-5-7-7-7-7-7-7-7-7-|  x4
D|-5-5-5-5-5-5-5-5-7-7-7-7-7-7-7-7-8-8-8-8-8-8-8-8-|
A|-7-7-7-7-7-7-7-7-5-5-5-5-5-5-5-5-8-8-8-8-8-8-8-8-|
E|-8-8-8-8-8-8-8-8-----------------6-6-6-6-6-6-6-6-|

Guitar 2:

e|-0-0-0-0-0-0-0-0-1-1-1-1-1-1-1-1-1-1-1-1-1-1-1-1-|
B|-1-1-1-1-1-1-1-1-3-3-3-3-3-3-3-3-1-1-1-1-1-1-1-1-|
G|-0-0-0-0-0-0-0-0-2-2-2-2-2-2-2-2-3-3-3-3-3-3-3-3-|  x4
D|-2-2-2-2-2-2-2-2-0-0-0-0-0-0-0-0-3-3-3-3-3-3-3-3-|
A|-3-3-3-3-3-3-3-3-----------------1-1-1-1-1-1-1-1-|
E|-------------------------------------------------|


[Chorus]
Guitar 1:
(C)              (Amin7)               (F)      (G)
e|-5-5-5-5-5-5-5-5-5-5-5-5-5-5-5-5-------------------------|
B|-6-6-6-6-6-6-6-6-6-6-6-6-6-6-6-6-6-6-6-6-6-6-6-6-8-8-8-8-|
G|-5-5-5-5-5-5-5-5-5-5-5-5-5-5-5-5-7-7-7-7-7-7-7-7-5-5-5-5-|
D|-7-7-7-7-7-7-7-7-7-7-7-7-7-7-7-7-8-8-8-8-8-8-8-5-5-5-5-5-|  x4
A|-8-8-8-8-8-8-8-8-5-5-5-5-5-5-5-5-8-8-8-8-8-8-8-8-7-7-7-7-|
E|---------------------------------6-6-6-6-6-6-6-6-8-8-8-8-|

Guitar 2:

e|-8--8--8--8--8--8--8--8--5-5-5-5-5-5-5-5-1-1-1-1-1-1-1-1-1-1-1-1-|
B|-8--8--8--8--8--8--8--8--6-6-6-6-6-6-6-6-1-1-1-1-1-1-1-1-1-1-1-1-|
G|-10-10-10-10-10-10-10-10-5-5-5-5-5-5-5-5-3-3-3-3-3-3-3-3-3-3-3-3-|   x4
D|-10-10-10-10-10-10-10-10-7-7-7-7-7-7-7-7-3-3-3-3-3-3-3-3-3-3-3-3-|
A|-8--8--8--8--8--8--8--8--5-5-5-5-5-5-5-5-1-1-1-1-1-1-1-1-1-1-1-1-|
E|-----------------------------------------------------------------|



[Outro]
Guitar 1:

e|-5~--------------------------------------------------------------------------|
B|-6~--------------------------------------------------------------------------|
G|-5~--------------------------------------------------------------------------|
D|-7~--------------------------------------------------------------------------|
A|-8~--------------------------------------------------------------------------|
E|-----------------------------------------------------------------------------|

e|-1~--------------------------------------------------------------------------|
B|-1~--------------------------------------------------------------------------|
G|-2~--------------------------------------------------------------------------|
D|-3~--------------------------------------------------------------------------|
A|-3~--------------------------------------------------------------------------|
E|-1~--------------------------------------------------------------------------|

In addition to Chords / Tabs Jimmy Eat World - Always Be (First Version), we offer an excerpt from a random book.‹1909› "Dressed with too light a cloak ..." Dressed with too light a cloak, I repeat my vows.

LiveInternet