AllChordsTabs.com

Lenny Kravitz - Love Revolution (First Version) Chords and Tabs


Artists:
Chords and Tabs » L » Lenny Kravitz - Love Revolution (First Version)

Lenny Kravitz - Love Revolution (First Version)

Lenny Kravitz - Love Revolution (First Version) Chords / Tabs

Lenny Kravitz - Love Revolution First Version: chords and tabs for the song. Watch chords and tablatures for all songs of the singer (group) Lenny Kravitz. Other chords and tabs for the "Love Revolution" can find at the bottom of the page.

Gtr I (E A D G B E) - 'Lenny Kravitz - Electric Guitar'
Gtr II (E A D G B E) - 'Craig Ross - Electric Guitar'


1st & 2nd Verses
Q=128
E       D       E       D       E       D
4/4
Gtr I
W            q  q  E E E E   q  q  E E E E   q  q  E E E E
|----------||----------------|---------------|----------------|
|----------||o-9--9----7---7-|-9--9----7---7-|-9--9----7---7--|
|----------||--9--9----7---7-|-9--9----7---7-|-9--9----7---7--|
|----------||--9--9----7---7-|-9--9----7---7-|-9--9----7---7--|
|----------||o-7--7----5---5-|-7--7----5---5-|-7--7----5---5--|
|----------||----------------|---------------|----------------|


E       D       E       D       E       D       E       D
q  q  E E E E   q  q  E E E E   q  q  E E E E   q  q  E E E E
|---------------|---------------|---------------|----------------|
|-9--9----7---7-|-9--9----7---7-|-9--9----7---7-|-9--9----7---7--|
|-9--9----7---7-|-9--9----7---7-|-9--9----7---7-|-9--9----7---7--|
|-9--9----7---7-|-9--9----7---7-|-9--9----7---7-|-9--9----7---7--|
|-7--7----5---5-|-7--7----5---5-|-7--7----5---5-|-7--7----5---5--|
|---------------|---------------|---------------|----------------|


E       A       B       A       B       A       B       A
q  q  E E E E   q  q  E E E E   q  q  E E E E   q  q  E E E E
|---------------|---------------|---------------|----------------|
|-9--9----5---5-|-7--7----5---5-|-7--7----5---5-|-7--7----5---5--|
|-9--9----6---6-|-8--8----6---6-|-8--8----6---6-|-8--8----6---6--|
|-9--9----7---7-|-9--9----7---7-|-9--9----7---7-|-9--9----7---7--|
|-7--7----7---7-|-9--9----7---7-|-9--9----7---7-|-9--9----7---7--|
|---------5---5-|-7--7----5---5-|-7--7----5---5-|-7--7----5---5--|


B       A       B       A       B       A       B       D
q  q  E E E E   q  q  E E E E   q  q  E E E E   q  q  E E E E
|---------------|---------------|---------------|----------------|
|-7--7----5---5-|-7--7----5---5-|-7--7----5---5-|-7--7----7---7--|
|-8--8----6---6-|-8--8----6---6-|-8--8----6---6-|-8--8----7---7--|
|-9--9----7---7-|-9--9----7---7-|-9--9----7---7-|-9--9----7---7--|
|-9--9----7---7-|-9--9----7---7-|-9--9----7---7-|-9--9----5---5--|
|-7--7----5---5-|-7--7----5---5-|-7--7----5---5-|-7--7-----------|


Chorus
D       A                            D        E       D
E E E E E E Q    +W           Q   Q  E E E E    q  q  E E E E
|----------------|------------|----------------||----------------|
|---7---7---5-5--|-(5)--------|-5-------7---7-||-9--9----7---7--|
|---7---7---6-6--|-(6)--------|-6-------7---7-||-9--9----7---7--|
|---7---7---7-7--|-(7)--------|-7-------7---7-||-9--9----7---7--|
|---5---5---7-7--|-(7)--------|-7-------5---5-||-7--7----5---5--|
|-----------5-5--|-(5)--------|-5-------------||----------------|


E       D       E       D       E       D       E       D
q  q  E E E E   q  q  E E E E   q  q  E E E E   q  q  E E E E
|---------------|---------------|---------------|----------------|
|-9--9----7---7-|-9--9----7---7-|-9--9----7---7-|-9--9----7---7--|
|-9--9----7---7-|-9--9----7---7-|-9--9----7---7-|-9--9----7---7--|
|-9--9----7---7-|-9--9----7---7-|-9--9----7---7-|-9--9----7---7--|
|-7--7----5---5-|-7--7----5---5-|-7--7----5---5-|-7--7----5---5--|
|---------------|---------------|---------------|----------------|


1.                2.
E       D       E       D       E       D
q  q  E E E E   q  q  E E E E   q  q  E E E E     q  q  E E E E
|---------------|---------------|----------------||----------------||
|-9--9----7---7-|-9--9----7---7-|-9--9----7---7-o||-9--9----7---7--||
|-9--9----7---7-|-9--9----7---7-|-9--9----7---7--||-9--9----7---7--||
|-9--9----7---7-|-9--9----7---7-|-9--9----7---7--||-9--9----7---7--||
|-7--7----5---5-|-7--7----5---5-|-7--7----5---5-o||-7--7----5---5--||
|---------------|---------------|----------------||----------------||


Interlude
E                         N.C.
Gtr II
E  E  E  E  E  E  E  E    E  E  E  E  E  E  E  E
|-------------------------|-------------------------|
|-15-15-15-15-15-15-15-15-|-15-15-15-15-15-15-15-15-|
|-------------------------|-------------------------|
|-12-12-12-12-12-12-12-12-|-12-12-12-12-12-12-12-12-|
|-------------------------|-------------------------|
|-------------------------|-------------------------|
|
| Gtr I
|  Q     Q     H             W
|-------------------------|-------------------------|
|--9----------------------|-------------------------|
|--9----------------------|-------------------------|
|--9----------------------|-------------------------|
|--7----------------------|-------------------------|
|-------------------------|-------------------------|


E  E  E  E  E  E  E  E    E  E  E  E  E  E  E  E
|-------------------------|--------------------------|
|-14-14-14-14-14-14-14-14-|-14-14-14-14-14-14-14-14--|
|-------------------------|--------------------------|
|-11-11-11-11-11-11-11-11-|-11-11-11-11-11-11-11-11--|
|-------------------------|--------------------------|
|-------------------------|--------------------------|
|
|  W                         W
|-------------------------|--------------------------|
|-------------------------|--------------------------|
|-------------------------|--------------------------|
|-------------------------|--------------------------|
|-------------------------|--------------------------|
|-------------------------|--------------------------|


Gtr II
E  E  E  E  E  E  E  E    E  E  E  E  E  E  E  E
|-------------------------|-------------------------|
|-13-13-13-13-13-13-13-13-|-13-13-13-13-13-13-13-13-|
|-------------------------|-------------------------|
|-10-10-10-10-10-10-10-10-|-10-10-10-10-10-10-10-10-|
|-------------------------|-------------------------|
|-------------------------|-------------------------|


E  E  E  E  E  E  E  E    E  E  E  E  E  E  E  E
|-------------------------|--------------------------||
|-12-12-12-12-12-12-12-12-|-12-12-12-12-12-12-12-----||
|-------------------------|----------------------11--||
|--9--9--9--9--9--9--9--9-|--9--9--9--9--9--9--9-12--||
|-------------------------|--------------------------||
|-------------------------|--------------------------||


Guitar Solo
E
Q   H.            +E   +E   S  S  S  S  S  E     +S   Q
|-----------------|-----------12-----------------------------|
|-----14b16-------|-(14)-(14)----15-12----12-----------------|
|-13--------------|--------------------14----12b13-(12)------|
|-14--------------|-------------------------------------14--|
|-----------------|------------------------------------------|
|-----------------|------------------------------------------|
|
| Gtr I
|  Q   Q     H        W
|-----------------|------------------------------------------|
|--9--------------|------------------------------------------|
|--9--------------|------------------------------------------|
|--9--------------|------------------------------------------|
|--7--------------|------------------------------------------|
|-----------------|------------------------------------------|


Q    E.  S  S  S  S  S  S  S  S  S
|-------------------------------------|
|-------------------------------------|
|-------------------------------------|
|-2/--14--12-14p12----12-14p12-14p12--|
|-2/--14-----------14-----------------|
|-------------------------------------|
|
| Q    Q      H
|-------------------------------------|
|-9-----------------------------------|
|-9-----------------------------------|
|-9-----------------------------------|
|-7-----------------------------------|
|-------------------------------------|


~~                         ~~
S  S  S  S  S  S  S  S  Q   +Q      E  E  S  S  E  Q   E   E
|------------------------------------|---------------------------|
|------------------------------------|---------------------------|
|------------------------------------|---------------12----------|
|-14p12----12------------------------|------14-12--------14-----|
|-------14----14s12-10h12-10--(10)--|-2s14-------14-------------|
|------------------------------------|-----------------------12/-|
|
|  W                                   Q     Q        H
|------------------------------------|---------------------------|
|------------------------------------|-9-------------------------|
|------------------------------------|-9-------------------------|
|------------------------------------|-9-------------------------|
|------------------------------------|-7-------------------------|
|------------------------------------|---------------------------|


S  S  E  E  E     Q   E  S      +S
|---------------------------------------|
|---------------------------------------|
|----------12-14b16-12--12-14b16==(14)--|
|----12-14------------------------------|
|-14------------------------------------|
|---------------------------------------|
|
|  W
|---------------------------------------|
|---------------------------------------|
|---------------------------------------|
|---------------------------------------|
|---------------------------------------|
|---------------------------------------|


+S    S  E     E.  S      +S    S  E     E.  S
|-----------------------------------------------------|
|-------15------------------------15------------------|
|-(14)r----14b16-12--14b16==(14)r----14b16-12--14b16==|
|-----------------------------------------------------|
|-----------------------------------------------------|
|-----------------------------------------------------|
|
|   Q             Q           H
|-----------------------------------------------------|
|---9-------------------------------------------------|
|---9-------------------------------------------------|
|---9-------------------------------------------------|
|---7-------------------------------------------------|
|-----------------------------------------------------|


A                B                     A
~~~~~~~
+E    S  S  E     +E   S  S  S  S  S  E.      E     +E   E  E  +Q     E  E
|-------12-12------------12-------------------|-------------------------------|
|-------------15b17-(15)----15-12----12-------|-------------------------------|
|-(14)r---------------------------14----12----|-12b13-(12)--------------------|
|---------------------------------------------|------------14-----------12-14-|
|---------------------------------------------|---------------14-(14)---------|
|---------------------------------------------|-------------------------------|
|
|   H                     E     E     E     E    q          q      E  E  E  E
|---------------------------------------------|-------------------------------|
|-------------------------------5-----------5-|--7----------7---------5-----5-|
|-------------------------------6-----------6-|--8----------8---------6-----6-|
|-------------------------------7-----------7-|--9----------9---------7-----7-|
|-------------------------------7-----------7-|--9----------9---------7-----7-|
|-------------------------------5-----------5-|--7----------7---------5-----5-|


B                  A
~~~~~~~
E  E  E  E  +Q     E  E
|--------------------------|
|-------12-15-(15)---12----|
|-11-14-----------------14-|
|--------------------------|
|--------------------------|
|--------------------------|
|
|  q     q      E  E  E  E
|--------------------------|
|--7-----7---------5-----5-|
|--8-----8---------6-----6-|
|--9-----9---------7-----7-|
|--9-----9---------7-----7-|
|--7-----7---------5-----5-|


B              A                     B              A
E  S  S  E  S  S  E  S  S  E S  S   E S  S E S S E E     Q
|------------------------------------|---------------------------|
|------------------------------------|---------------------------|
|-12-12h14-12-11h13-11-10h12-10-9h11-|-9-8h10-8-7h9-7-7b7.5------|
|------------------------------------|----------------------9---|
|------------------------------------|---------------------------|
|------------------------------------|---------------------------|
|
|  q        q        E  E     E E      q      q     E E     E  E
|------------------------------------|---------------------------|
|--7--------7-----------5-------5----|-7------7-------5--------5-|
|--8--------8-----------6-------6----|-8------8-------6--------6-|
|--9--------9-----------7-------7----|-9------9-------7--------7-|
|--9--------9-----------7-------7----|-9------9-------7--------7-|
|--7--------7-----------5-------5----|-7------7-------5--------5-|


B                A
Q   E E +Q       +E   E
|-----------------------------|
|----------------------10-----|
|-------9-(9)b11---(9)--9b11==|
|-----------------------------|
|-----------------------------|
|-2/--7-----------------------|
|
| q   q    E     E  E   E
|-----------------------------|
|-7---7----------5------5-----|
|-8---8----------6------6-----|
|-9---9----------7------7-----|
|-9---9----------7------7-----|
|-7---7----------5------5-----|


B                    A            B               D
+S    E.   E    +E  Q   E E      +E  E E  E E    E E E
|---------------------------------|-------7---------------|
|-(10)--10------------------------|-----7---10------------|
|--(9)r--9b11-9b11-(9)-7---0-9b11-|-(9)--------9b11-9-7-9-|
|---------------------------------|-----------------------|
|---------------------------------|-----------------------|
|---------------------------------|-----------------------|
|
|   q         q        E E E E       q    q    E    E E E
|---------------------------------|-----------------------|
|---7---------7----------5---5----|--7----7---------7---7-|
|---8---------8----------6---6----|--8----8---------7---7-|
|---9---------9----------7---7----|--9----9---------7---7-|
|---9---------9----------7---7----|--9----9---------5---5-|
|---7---------7----------5---5----|--7----7---------------|


A                            D
E E E E E E Q    +W           Q   Q  H
|----------------|------------|----------------||
|---7---7---5-5--|-(5)--------|-5-------------||
|---7---7---6-6--|-(6)--------|-6-------------||
|---7---7---7-7--|-(7)--------|-7-------------||
|----------------|------------|----------------||
|----------------|------------|----------------||
|
| E E E E E E Q    +W           Q   Q  E E E E
|----------------|------------|----------------||
|---7---7---5-5--|-(5)--------|-5-------7---7-||
|---7---7---6-6--|-(6)--------|-6-------7---7-||
|---7---7---7-7--|-(7)--------|-7-------7---7-||
|---5---5---7-7--|-(7)--------|-7-------5---5-||
|-----------5-5--|-(5)--------|-5-------------||


Out-Chorus
E       D       E       D       E       D
Gtr I
q  q  E E E E   q  q  E E E E   q  q  E E E E
||----------------|---------------|---------------|
||o-9--9----7---7-|-9--9----7---7-|-9--9----7---7-|
||--9--9----7---7-|-9--9----7---7-|-9--9----7---7-|
||--9--9----7---7-|-9--9----7---7-|-9--9----7---7-|
||o-7--7----5---5-|-7--7----5---5-|-7--7----5---5-|
||----------------|---------------|---------------|


E       D         E       D E D   E
q  q  E E E E  6x q  q  E E E E   q  q  H
|----------------||---------------|------------*|
|-9--9----7---7-o||-9--9----7-9-7-|-9--9-------*|
|-9--9----7---7--||-9--9----7-9-7-|-9--9-------*|
|-9--9----7---7--||-9--9----7-9-7-|-9--9-------*|
|-7--7----5---5-o||-7--7----5-7-5-|-7--7-------*|
|----------------||---------------|------------*|

In addition to Chords / Tabs Lenny Kravitz - Love Revolution (First Version), we offer an excerpt from a random book.With all her desire now, she could not predict which decision he was leaning towards.

LiveInternet