AllChordsTabs.com

Justin Timberlake - Tko (First Version) Chords and Tabs


Artists:
Chords and Tabs » J » Justin Timberlake - Tko (First Version)

Justin Timberlake - Tko (First Version)

Justin Timberlake - Tko (First Version) Chords / Tabs

Justin Timberlake - Tko First Version: chords and tabs for the song. Watch chords and tablatures for all songs of the singer (group) Justin Timberlake. Other chords and tabs for the "Tko" can find at the bottom of the page.

Album:
Transcriped By: Steven Parks



Main Riff: (almost repeated through the whole song)

e|------------------------------------------|
B|------------------------------------------|
G|------------------------------------------|   // = slide
D|-----------6-------------11//9-----9-8-6--|
A|--6-6-8//9---9-8-6--4---------------------|
E|------------------------------------------|


(A few times the last three notes are not played !!!)

e|------------------------------------------|
B|------------------------------------------|
G|------------------------------------------|
D|-----------6-------------11//9----(9-8-6)-|
A|--6-6-8//9---9-8-6--4---------------------|
E|------------------------------------------|


Chords for Verse 1+2:

Eb m     Eb m        B         B
e|--6---------6---------7---------7---------|
B|--7---------7---------7---------7---------|
G|--8---------8---------8---------8---------|
D|--8---------8---------9---------9---------|
A|-(6)-------(6)-------(9)-------(9)--------|
E|---------------------(7)-------(7)--------|


Bridge: (octave effect +1 pitch)

e|--11------14-----13-----11--------9-------|
B|--x-------x------x------x---------x-------|
G|--8-------11-----10-----8---------6-------|
D|------------------------------------------|
A|------------------------------------------|
E|------------------------------------------|


Ending Part:

e|------------------------------------------|
B|-------------11--------12--------11-------|
G|--8---------------------------------------|
D|------------------------------------------|
A|------------------------------------------|
E|------------------------------------------|

e|------------------------------------------|
B|------------------------------------------|
G|--8---------8-----------------------------|
D|--8---------8---------9---------6---------|
A|--6---------6---------9---------6---------|
E|----------------------7---------4---------|


So that's all. If you want to see this tab in action just watch

In addition to Chords / Tabs Justin Timberlake - Tko (First Version), we offer an excerpt from a random book.These painting lessons were not in vain for Serov's later composing activity.

LiveInternet