AllChordsTabs.com

Jimi Hendrix - Hey Baby (First Version) Chords and Tabs


Artists:
Chords and Tabs » J » Jimi Hendrix - Hey Baby (First Version)

Jimi Hendrix - Hey Baby (First Version)

Jimi Hendrix - Hey Baby (First Version) Chords / Tabs

Jimi Hendrix - Hey Baby First Version: chords and tabs for the song. Watch chords and tablatures for all songs of the singer (group) Jimi Hendrix. Other chords and tabs for the "Hey Baby" can find at the bottom of the page.

Intro:
------0-----------------------------0-------------------------------3-----
------0-----------------------------1-------------------------------3h5p3-
------1-----------------------------0--------------------------0----------
------2-----------------------------2--------------------2-3-4------5-----
---2-------------------0--1--2----3------0--1--2--3--3h5------------------
--0--------0--1--2--3--------------------------------------------3--------

---3--------2-----------0----------0-----------------------0-
---3h5p3----3-----------2----------0-----------------------1-
---4--------2-----------2----------1-----------------------0-
---5---3--0---0---------2----------2--3-2-1-0----------------
----------------3(4)--0----0-------2-----------3-2-1-0----3--
------------------------------3(4)-0--------------------3----

-----------0----------------------------------1-0----3-1-0--------------
--------2-----2--0-------1-0------1-0------------3--------3-1-0--------
---1-3---------------1--------3-1------3-1---------------------3-1-0-

Eb Eb Eb Eb - Bb  Db Db Db Db - G
Ab A Bb
---------------
---------------
-----8-10p8----
-/10--------10-
---------------

Eb Eb Eb Eb - Bb  Db Db Db Db - G
Ab A Bb C

---8--8-----------------------------------6-
--10-10-----------------------------------6-
--10-10-----------------------------------7-
--10-10-----------------------------------8-
---8--8----8-10--8--7--8--7---------------8-
---8--8------------------------10--8--6-----

---5--5---------------------------------3-
---7--7---------------------------------3-
---7--7---------------------------------4-
---7--7---------------------------------5-
---5--5----5--7--5--4--5--4---------------
---5--5------------------------7--5--3----

--2------------------------------------0-
--4------------------------------------0-
--4------------------------------------1-
--4--4---------------------------------2-
--2--2----2--4--2--1--2--1-------------2-
--2--2------------------------4--2--0----


Core Progression:
A5 G F D

some G licks:

------3-------|------3/53-|------3h5p3-
------3h5p3---|------3/53-|------3-----
------------4-|------------|------------
----5---------|----5-------|----5-------
--------------|------------|------------
-3------------|--3---------|-3----------

Solo 1:
-----------------0--------------------------------------------------
-3/5~~--5--3h5--3-3p0-1h3-1p0---0h1h3-1h3--1h3p1p0---0-1-3(5)3p1p0-
------------4h5----------------2--------------------2---------------

---------------------------------8h10p8----------------------------------------
-3/53--3p0---------------8--/10--------8h10p8---------------------------------
-2/42--3p0-----5--/9--------------------------9-5-7(9)7p5---5-7-----5-5-7-5---
------------/7---------------------------------------------7-----5/7---------7-

------------------------------5---5-5-5---/8-8-8--7-------------------
------------------------------5h7-7-7-7---/9-9-9--7-5-7-5-------------
-0h2-0h2p0------------------------------------------------7-5---------
-----------3--3/5-0--0-3-5-7----------------------------------7-5-----

----------------------5-8(10)-8(10)~-(10)---------8---------------
----------------5h7(9)-------------------(9)7-7(9)--(9)7p5-7-5----
------------5-7------------------------------------------------7~-
---3h5-5/7--------------------------------------------------------
-5----------------------------------------------------------------

-----------------0-0-0-0-0-0-0-0----/18---------------
----------------/8-8-8-8-8-8-8-8----/18---------------
----------------/9-9-9-9-9-9-9-9----/18---------------
-7p5-----------------------------------------------------------------
-----7-6-5-3-0-------------------------------------------------------

A5   G     F
"Hey Baby,
D            A5     G    F   D
Where do you come from?"
A5                    G                       F
She looked at me and smiled and looked into space
D                   A5          (C#) G         F  D
and said, "I'm comin' from the Land of the New Rising Sun"
A5                G   F
and I said "Hey Baby,
D             A5        G      F  D
Where are you trying to go to?"
A5             G                  F                           D
And she says, "I've gotta spread, spread around peace of mind
A5          (C#)    G       F      E
and a whole lotta love to you and yours"

A5                    C#    D
Girl I'd like to come along

-------------------------------------
-------------------------------------
-12-12-12-12-11-11-11-11-10-10-10-10-
-------------------------------------
-10-10-10-10-9--9--9--9--8--8--8--8--
-------------------------------------

A5                    C#    D  D  D D
Yes I'd like to come along

------------------
------------------
------------------
------7-9-7-------
--7-9-------9-7-5-
------------------

A5                       C#    D
"Would you like to come along?" she asked me

-------------------------------------
-------------------------------------
-12-12-12-12-11-11-11-11-10-10-10-10-
-------------------------------------
-10-10-10-10-9--9--9--9--8--8--8--8--
-------------------------------------

A5            C#    D  D  D
Yes, take me along right now

E     G     B     D

-------------
-------------
-------------
-----7-9p7---
--/9-------9-
-------------

A5 G F D (4x)

Solo 2:

------------------------------------------------5-------------------
-5--------------------------------------------5---8(10)~------------
-5h7~-5----------------------------------7(9)------------(9)7-5-----
--------7-5---3----5--------------------------------------------7-5-
--------------3h5~---7-5-3~------3-5-7~-----------------------------
-----------------------------3-5------------------------------------

----------------------7--7--7--------8(10)8-5------8-----------------
-5-7(9)7-5------------7--7--7----5--5---------7(9)--(9)7-5-7(9)7-5---
-----------7-5--------7--7--7--------------------------------------7-
---------------7-8~---5--5--5----------------------------------------
------------------------------5-5------------------------------------

--------------------------------------------------------8-8-8-8--10-10-10-10-
------------------------------5---5-----5--------------/8-8-8-8-/10-10-10-10-
-----5------------------------5h7-5-----5--------------/9-9-9-9-/11-11-11-11-
-5---5h7-5------------------5-------7-5---7p5~-------------------------------
-5h7-----5-----------3-5-/7--------------------75-7~------------------------
------------8-0--3h5---------------------------------------------------------

-12------------------------------------------------------------------------------
-12--7-8-7----------------7-7-7----------------------------0h1h3p1p0-3p1p0-3p1p0-
-----7-9-7--5-------------7-7-7--------------------0---0-2-----------------------
--------------7-5-7~-5-5--7-7-7----------0-0-----0-0h2---------------------------
---------------------7-5--5-5-5------0-3-----0h2---------------------------------
---------------------------------0-3---------------------------------------------

-----------0----------------------------------------------------------------
-----0-1-3---3(5)-3(5)-(5)3p1p0---1h3p1p0-----------------------------------
-0h2----------------------------2---------2-0-----0h2p0--------------0--2~~-
----------------------------------------------0h2-------2p0---0-2-3--0------
------------------------------------------------------------3---------------

-4h5-5-5-5-5--5p4-4h5-4-4~--/9--9-9-7h9p7-5--5--7------------5------
---------------------------------------------------0----5----5------
------------------------------------------------------5---7---------


A5  G     F
Hey baby,
D                    A5       (C#)  G  F  D
Can I step into your world a while?
A5      G             F
Yes you can she said
D                 A5  (C#)   G      F   D
Come on back with me for a while
A5          (C#)          G            F  D
We're gonna go across to Jupiter's sun
A5           (C#)    G           F   D
And see all your people one by one.
A5                  (C#)  G             F  D
You gotta help the people all right now
A5              (C#)       G            F  D
That's what I'm doin' here all about

A5          C#   D
Yeah, yeah! May I come along

-------------------------------------
-------------------------------------
-12-12-12-12-14-14-14-14-16-16-16-16-
-------------------------------------
-10-10-10-10-12-12-12-12-14-14-14-14-
-------------------------------------

A5           C#  D D D D
May I come along
-9p7------9p7------
-7---10-7-7---10-7-
-7--------7--------
-------------------
-------------------
-------------------
A5         C#    D
May I come along
-------------------------------------
-------------------------------------
-12-12-12-12-11-11-11-11-10-10-10-10-
-------------------------------------
-10-10-10-10-9--9--9--9--8--8--8--8--
-------------------------------------

A5          G
Please take me

E  G9  B  D  F#

A

*note: only root of (C#) during verse is played on guitar

In addition to Chords / Tabs Jimi Hendrix - Hey Baby (First Version), we offer an excerpt from a random book.- Well, - Lena grunted, slightly moving away from me, - Here I can’t even argue with you.

LiveInternet