AllChordsTabs.com

Linkin Park - A06 (Eighth Version) Chords and Tabs


Artists:
Chords and Tabs » L » Linkin Park - A06 (Eighth Version)

Linkin Park - A06 (Eighth Version)

Linkin Park - A06 (Eighth Version) Chords / Tabs

Linkin Park - A06 Eighth Version: chords and tabs for the song. Watch chords and tablatures for all songs of the singer (group) Linkin Park. Other chords and tabs for the "A06" can find at the bottom of the page.

Drop C#/Drop Db

[Intro] [Part 1 - P.M.]
D#|---------------------------------------------------------------------------|
A#|---------------------------------------------------------------------------|
F#|---------------------------------------------------------------------------|
C#|---------------------------------------------------------------------------|
G#|---------------------------------------------------------------------------|
C#|-8-7-0-0-0--1-0-0-0----0-1-0-1-0-0-0---------------------------------------|

[Intro] [Part 2 - P.M.]
D#|---------------------------------------------------------------------------|
A#|---------------------------------------------------------------------------|
F#|---------------------------------------------------------------------------|
C#|-8-7-0-0-0--1-0-0-0----0-1-0-1-0-0-0---------------------------------------|
G#|-8-7-0-0-0--1-0-0-0----0-1-0-1-0-0-0---------------------------------------|
C#|-8-7-0-0-0--1-0-0-0----0-1-0-1-0-0-0---------------------------------------|

[Verse] [Distortion]
D#|---------------------------------------------------------------------------|
A#|---------------------------------------------------------------------------|
F#|---------------------------------------------------------------------------|
C#|-8-7-0-0-8-7-0-0-0-8-7-8-7-0-0----------------------------------------------|
G#|-8-7-0-0-8-7-0-0-0-8-7-8-7-0-0----------------------------------------------|
C#|-8-7-0-0-8-7-0-0-0-8-7-8-7-0-0----------------------------------------------|

[Chorus]
D#|---------------------------------------------------------------------------|
A#|---------------------------------------------------------------------------|
F#|---------------------------------------------------------------------------|
C#|-8-7-0--10-3-3-3--8-7--0-2-3333-2-0-5-5-5-7-8------------------------------|
G#|-8-7-0--8--3-3-3--8-7--0-2-3333-2-0-5-5-5-7-8------------------------------|
C#|-8-7-0--8--3-3-3--8-7--0-2-3333-2-0-5-5-5-7-8------------------------------|

[Bridge]
D#|---------------------------------------------------------------------------|
A#|-------------------------(4)-----------------------------------------------|
F#|-------------------------(4)-----------------------------------------------|
C#|-1--7-/-1-0-0-0-1-0-1-0---------------------------------------------------|
G#|-1--7-/-1-0-0-0-1-0-1-0---------------------------------------------------|
C#|-1--7-/-1-0-0-0-1-0-1-0---------------------------------------------------|

In addition to Chords / Tabs Linkin Park - A06 (Eighth Version), we offer an excerpt from a random book.A., from somewhere on the side, in a gray apron with a chest, with a stack of linen in his hands, and behind her and D.

LiveInternet