AllChordsTabs.com

Less Than Jake - Down Beat (First Version) Chords and Tabs


Artists:
Chords and Tabs » L » Less Than Jake - Down Beat (First Version)

Less Than Jake - Down Beat (First Version)

Less Than Jake - Down Beat (First Version) Chords / Tabs

Less Than Jake - Down Beat First Version: chords and tabs for the song. Watch chords and tablatures for all songs of the singer (group) Less Than Jake. Other chords and tabs for the "Down Beat" can find at the bottom of the page.

DOWNBEAT - Jess Than Jake


The beginning has 2 G power chords...

Verse #1
E------------------------------------------------------------------------
B----5-5-X-5-X-5-X-5-X-5-X-5-X-5-X-5-X-7-X-7-X-7-X-7-X-9-X-9-X-9-X-9-----
G----6-6-X-6-X-6-X-6-X-6-X-6-X-6-X-6-X-7-X-7-X-7-X-7-X-9-X-9-X-9-X-9-----
D----7-7-X-7-X-7-X-7-X-7-X-7-X-7-X-7-X-7-X-7-X-7-X-7-X-9-X-9-X-9-X-9-----
A------------------------------------------------------------------------
E------------------------------------------------------------------------
w/a upicking ska motion

Verse #2
E------------------------------------------------------------------------
B------------------------------------------------------------------------
G--------------------7--7--5--5-5-5-5------------------------------------
D----5--5--5-5--5-5--7--7--5--5-5-5-5------------------------------------
A----5--5--5-5--5-5--5--5--3--3-3-3-3------------------------------------
E----3--3--3-3--3-3------------------------------------------------------
w/ distortion

The song basically goes like this...

Intro.. Verse #1 2x
Verse #1 2x
Verse #2 4x
Verse #1 2x
Verse #2 4x
Verse #1 2x
Verse #1 2x slower tempo
Verse #1 improvise
bass solo
Verse #1 4x
improvise ending

In addition to Chords / Tabs Less Than Jake - Down Beat (First Version), we offer an excerpt from a random book.If they gave me one word to define Balmont, I would say without hesitation: - Poet.

LiveInternet