AllChordsTabs.com

Less Than Jake - Green Eyed Monster (First Version) Chords and Tabs


Artists:
Chords and Tabs » L » Less Than Jake - Green Eyed Monster (First Version)

Less Than Jake - Green Eyed Monster (First Version)

Less Than Jake - Green Eyed Monster (First Version) Chords / Tabs

Less Than Jake - Green Eyed Monster First Version: chords and tabs for the song. Watch chords and tablatures for all songs of the singer (group) Less Than Jake. Other chords and tabs for the "Green Eyed Monster" can find at the bottom of the page.

write me if you havent heard it and you want timing, it's really easy.

e|-------------------9-11-9--|
B|-9-11-9---11-13-11---------|
G|---------------------------|    x2
D|---------------------------|
A|---------------------------|
E|---------------------------|

e|------------------------------------------------9-11-11-11-9 --------------|
B|9-11-11-11-11-9--9-11-11-11-9--11-13-13-13-13-11---------------------------|
G|---------------------------------------------------------------------------|  x2
D|---------------------------------------------------------------------------|
A|---------------------------------------------------------------------------|
E|---------------------------------------------------------------------------|

Verse
e|--4----6-----4---|
B|--4----6-----6---|
G|--5----7-----6---| or use the power chords
D|--6----8-----6---|
A|--6----8-----4---|
E|--4----6-----4---|

Chorus            Last stanza of Chorus and then right back into verse
e|--6---4---4--|-6--4--6--|
B|--6---6---4--|-6--6--8--|
G|--7---6---5--|-7--6--8--|
D|--8---6---6--|-8--6--8--|
A|--8---4---6--|-8--4--6--|
E|--6---4---7--|-6--4--6--|

In addition to Chords / Tabs Less Than Jake - Green Eyed Monster (First Version), we offer an excerpt from a random book.Looking for freedom for myself, I will give it to another, Or it will be cramped together, it will be too cramped for us.

LiveInternet