AllChordsTabs.com

Mars Volta - Intenatic Esp (First Version) Chords and Tabs


Artists:
Chords and Tabs » M » Mars Volta - Intenatic Esp (First Version)

Mars Volta - Intenatic Esp (First Version)

Mars Volta - Intenatic Esp (First Version) Chords / Tabs

Mars Volta - Intenatic Esp First Version: chords and tabs for the song. Watch chords and tablatures for all songs of the singer (group) Mars Volta. Other chords and tabs for the "Intenatic Esp" can find at the bottom of the page.

Intenatic ESP         The Mars Volta
Intro
w/dist
E |---------------------------------------------------------|
B |---------------------------------------------------------|
G |--11----11----11---11----11------------------------------|
D |--9-----9-----9-----9----9-------------------------------|
A |--x-----x-----x-----x----x-------------------------------|
E |--7-----7-----7-----7----7-------------------------------|

Chorus:  (IВґm lost)
E |---------------------------------------------------------|
B |---------------------------------------------------------|
G |---9----9------7----7-----11-----11----11------7---------|
D |---9--9---9----7--7---7---11--11-------9----9----9-------|
A |---7-----------5----------9------------x-----------------|
E |---------------------------------------7-----------------|
Verse
E|-----------------------------------------------------------------------|
B|-----------------------------------------------------------------------|
G|----------------------------------------------------11-11-11--11--11---|
D|----------------------------------------------------9--9--9---9---9----|
A|-7-7-7-7x7-7-7-7--5-5-5-5x5-5-5-5--9-9-9-9x9-9-9-9--x--x--x---x---x----|
E|----------------------------------------------------7--7--7---7---7----|

E|-----------------------------------------------------------------------|
B|-----------------------------------------------------------------------|
G|--------------------------------------------------------11------7------|
D|--------------------------------------------------------9----9-----9---|
A|-7-7-7-7x7-7-7-7---5-5-5-5x5-5-5-5---9-9-9-9x9-9-9-9----x--------------|
E|--------------------------------------------------------7--------------|

Solo: not sure sounds good thogh
E|---------------------------/14-----------------------------------------|
B|-------------------------------------/15-----12--------9---0---7*------|
G|---11- 11------w/delay-----------10-------9--------7-------------------|
D|-----------------------------------------------------------------------|
A|-----------------------------------------------------------------------|
E|-----------------------------------------------------------------------|

repeat

E|-----------------------------------------------------------------------|
B|-----------------------------------------------------------------------|
G|-----------------------------------------------------------------------|
D|------------------------------7h9999-7h9999-7h9999-7h9999-9h12-12-12-12|
A|-0h2222-0h2222-0h2222-0h2222-------------------------------------------|
E|-----------------------------------------------------------------------|

E|-----------------------------------------------------------------------|
B|-----------------------------------------------------------------------|
G|-----------------------------------------------------------------------|
D|-9h12-12-12-12-9h12-12-12-12-9h12-12-12-12-----------------------------|
A|-------------------------------------------7h9999-7h9999-7h9999-7h9999-|
E|-----------------------------------------------------------------------|

repeat

After solo;
E|-----------------------------------------------------------------------|
B|------------------10--10-----------------------------------------------|
G|---7--7----4--4---11--11-----11----------7-----------------------------|
D|---x--x----x--x----x---x------9------9-------9-------------------------|
A|---7--7----5--5----9---9------x----------------------------------------|
E|------------------------------7----------------------------------------|

E|-----------------------------------------------------------------------|
B|-----------------------------------------------------------------------|
G|-----------------------------------------------------------------------|
D|---------7--7--7--7--7-------------------------------------------------|
A|---7-----5--5--5--5--5-----4--5--4--2-----repeat-----------------------|
E|-----------------------------------------------------------------------|

In addition to Chords / Tabs Mars Volta - Intenatic Esp (First Version), we offer an excerpt from a random book.It will go from “I don’t know what to do” to “Let it be as it is possible”.

LiveInternet