AllChordsTabs.com

Kiss - All For The Glory (First Version) Chords and Tabs


Artists:
Chords and Tabs » K » Kiss - All For The Glory (First Version)

Kiss - All For The Glory (First Version)

Kiss - All For The Glory (First Version) Chords / Tabs

Kiss - All For The Glory First Version: chords and tabs for the song. Watch chords and tablatures for all songs of the singer (group) Kiss. Other chords and tabs for the "All For The Glory" can find at the bottom of the page.

-----------------------------------------------------------------
-----------------------------------------------------------------
Tuning: Half-step down


Intro:
Riff 1:
Guitar 1:
Do this riff 4 times
|-----------|        |-------------|
|-----------|x4 then |-------------|
|-----------|        |-------------|
|-----------|        |-------------|
|---3-5-5---|        |---3-5-5-5---|
|-----------|        |-------------|

Guitar 2:
After guitar one has played riff 1 once, guitar two comes along like this
|-------|
|-------|
|---7---|
|---7---|
|---5---|
|-------|

After guitar one has played riff 1 twice guitar two plays this twice. There's a
six string slide down one the first time this is played that is not in the tab.
|-----------|        |-----------|
|-----------|        |---8-6-----|
|---5-7-7---|x8 then |-------7---|
|-----------|        |-----------|
|-----------|        |-----------|
|-----------|        |-----------|

Riff 2:
Guitar 1:
|-------------------------------------------------------------------------------|
|-------------------------------------------------------------------------------|x2
|---7---7---5--7--7---10--10-12--10-7--5-------------------10--10-12--10-7--5---|
|---7---7---5--7--7---10--10-12--10-7--5--8---8--7--8--8---10--10-12--10-7--5---|
|---5---5---3--5--5---8---8--10--8--5--3--8---8--7--8--8---8---8--10--8--5--3---|
|-----------------------------------------6---6--5--6--6------------------------|

Guitar 2:
Guitar two is played only on the second time
|------------------------------------------10b--8h10b---17-17-15-13---------------|Let the final note
|---------------------10--10---8------------------------------------15-13-13h15---|ring for the first
|---7------7b---------------------10--7-------------------------------------------|couple words of
|---------------------------------------------------------------------------------|Verse 1.
|---------------------------------------------------------------------------------|
|---------------------------------------------------------------------------------|

Verse 1:
|-----------------------------------------|
|-----------------------------------------|
|-------------------------------------7---|
|--------------8--8--7-8-8--8--8--5-5-7---|
|--------------8--8--7-8-8--8--8--5-5-5---|
|--------------6--6--5-6-6--6--6--3-3-----|
...beat like a drum

|--------------------------------------------|
|--------------------------------------------|
|----------------------------------5-5-------|
|---------------8--8--7-8-8--8--8--5-5-5-5---|
|---------------8--8--7-8-8--8--8--3-3-5-5---|
|---------------6--6--5-6-6--6--6------3-3---|
...get ready to run

Pre-Chorus:
|---------------------------------------------------------------------|
|---------------------------------------------------------------------|
|---------------5-5---5---5-5---------------7-7-7-7-7-7-7-7-7-7-7-7---|
|---5---5---5-5-5-5---5---5-5-5-5---5---5-5-7-7-7-7-7-7-7-7-7-7-7-7---|
|---5---5---5-5-3-3---3---3-3-5-5---5---5-5-5-5-5-5-5-5-5-5-5-5-5-5---|
|---3---3---3-3---------------3-3---3---3-3---------------------------|

Chorus:
|-------------------------------------------------------------------------------|
|-------------------------------------------------------------------------------|x2
|---7---7---5--7--7---10--10-12--10-7--5-------------------10--10-12--10-7--5---|
|---7---7---5--7--7---10--10-12--10-7--5--8---8--7--8--8---10--10-12--10-7--5---|
|---5---5---3--5--5---8---8--10--8--5--3--8---8--7--8--8---8---8--10--8--5--3---|
|-----------------------------------------6---6--5--6--6------------------------|
We're all for one...

Bridge 1(same as intro):
Guitar 1:
Play this twice
|-----------|        |-----------------|
|-----------|x4 then |-----------------|
|-----------|        |-------------7---|
|-----------|        |-------------7---|
|---3-5-5---|        |---3-5-5-5---5---|
|-----------|        |-----------------|

Guitar 2:
After guitar one has played it's part once play this with guitar two
|-----------|        |-------------|
|-----------|        |-------------|
|---5-7-7---|x4 then |---5-7-7-7---|
|-----------|        |-------------|
|-----------|        |-------------|
|-----------|        |-------------|

Verse 2:
Guitar 1:
|--------------------------------------------|
|--------------------------------------------|
|--------------------------------------7-7---|
|---------------8--8--7-8-8--8--8--5-5-7-7---|
|---------------8--8--7-8-8--8--8--5-5-5-5---|
|---------------6--6--5-6-6--6--6--3-3-------|
... wherever we go

|-----------------------------------------|
|-----------------------------------------|
|-------------------------------5-5-------|
|------------8--8--7-8-8--8--8--5-5-5-5---|
|------------8--8--7-8-8--8--8--3-3-5-5---|
|------------6--6--5-6-6--6--6------3-3---|
...people we know

Guitar 2:
Please listen to the song for correct timing
|---10---10-8--------------------|
|-------------10-8-6---6-8/10b---|
|--------------------7-----------|
|--------------------------------|
|--------------------------------|
|--------------------------------|

|-----------12--------------------|
|---9b*--10---10-10-8--6---6h8b---|
|------------------------7--------|
|---------------------------------|
|---------------------------------|
|---------------------------------|
*When strumming this note bend it one whole note up then bend it down back to a 9.

Pre-Chorus:
|---------------------------------------------------------------------|
|---------------------------------------------------------------------|
|---------------5-5---5---5-5---------------7-7-7-7-7-7-7-7-7-7-7-7---|
|---5---5---5-5-5-5---5---5-5-5-5---5---5-5-7-7-7-7-7-7-7-7-7-7-7-7---|
|---5---5---5-5-3-3---3---3-3-5-5---5---5-5-5-5-5-5-5-5-5-5-5-5-5-5---|
|---3---3---3-3---------------3-3---3---3-3---------------------------|

Chorus:
|-------------------------------------------------------------------------------|
|-------------------------------------------------------------------------------|x2
|---7---7---5--7--7---10--10-12--10-7--5-------------------10--10-12--10-7--5---|
|---7---7---5--7--7---10--10-12--10-7--5--8---8--7--8--8---10--10-12--10-7--5---|
|---5---5---3--5--5---8---8--10--8--5--3--8---8--7--8--8---8---8--10--8--5--3---|
|-----------------------------------------6---6--5--6--6------------------------|
We're all for one...

Bridge 2:
|-----------|        |-------------|         |-----------|        |-------------|
|-----------|x4 then |-------------|once then|---5-6-6---|x4 then |---5-6-6-6---|
|---5-7-7---|        |---5-7-7-7---|         |-----------|        |-------------|
|-----------|        |-------------|         |-----------|        |-------------|
|-----------|        |-------------|         |-----------|        |-------------|
|-----------|        |-------------|         |-----------|        |-------------|

|---3-5-5---|        |---3-5-5-5---|         |---8-10-10-8-10-10-8h10b---|
|-----------|x4 then |-------------|once then|---------------------------|
|-----------|        |-------------|         |---------------------------|
|-----------|        |-------------|         |---------------------------|
|-----------|        |-------------|         |---------------------------|
|-----------|        |-------------|         |---------------------------|

Solo
Guitar 1 plays chorus in the background four times.
Guitar 2:
|------10-------------------------------------------------------------------------------------------|
|-10-10--10-8p6-8-6--10b--10b--10b--10b--10b--10b-10b-10b-10b-x-10b-10b-10b-10b-10p8p6-10p8p6-10p8p6|
|---------------------------------------------------------------------------------------------------|
|---------------------------------------------------------------------------------------------------|
|---------------------------------------------------------------------------------------------------|
|---------------------------------------------------------------------------------------------------|

|---------------------------------------------------------------------------------------------|
|------------6------------------------6------------------6--6-8-6-8-10b---10-13-10-8---10-8---|
|---7--7-5-7---7-5-7--7-5----7--7-5-7---------5--5-7-5-7--7-----------------------------------|
|-------------------------7-------------7-5-7--7----------------------------------------------|
|---------------------------------------------------------------------------------------------|
|---------------------------------------------------------------------------------------------|

Play this twice                                                     1st time, play this
|---13-13-13-13-12-10-13-13-13-13-12-10-13-13-13-13-12-10-8-8--8-8-|--------------|
|------------------------------------------------------------------|-8-6----6-----|
|------------------------------------------------------------------|-----7----7---|
|------------------------------------------------------------------|--------------|
|------------------------------------------------------------------|--------------|
|------------------------------------------------------------------|--------------|

2nd time, play this
|---15--15p13--------------|
|------------15-13-15-15---|
|--------------------------|
|--------------------------|
|--------------------------|
|--------------------------|

|-----------------------------------------------------8-----8/10b---|
|---10b-10b---13b-13b--13b----9p8-9p8-9p8-9p8-9p8-6-8---8-6---------|
|-------------------------------------------------------------------|
|-------------------------------------------------------------------|
|-------------------------------------------------------------------|
|-------------------------------------------------------------------|

Bridge 3:
Guitar 1:
|----------------------------------------------------|
|----------------------------------------------------|
|----------------7-----------5---5-5---5-5-5--5--5---|
|-------5----------7---------5---5-5---5-5-5--5--5---|
|-----5--------------5-------3---3-3---3-3-3--3--3---|
|---3------------------------------------------------|

[-------------------------30 notes------------------------]
|------------------------------------------------------------------------------------------------|
|------------------------------------------------------------------------------------------------|
|--------------------7-------5---5-5-5-5-5-5-5-5-5-5-5-5-5-5-5-5-5-5-5-5-5-5-5-5-5-5-5-5-5-5-7---|
|---5--------------7---------5---5-5-5-5-5-5-5-5-5-5-5-5-5-5-5-5-5-5-5-5-5-5-5-5-5-5-5-5-5-5-7---|
|-----5----------5-----------3---3-3-3-3-3-3-3-3-3-3-3-3-3-3-3-3-3-3-3-3-3-3-3-3-3-3-3-3-3-3-5---|
|-------3----------------------------------------------------------------------------------------|
| Play these notes at
Guitar 2:                                                      | the same time
|--------------------------------------------------------------8-8-8-8-8-8-8-8-8-8-8-8-8-8-8-----|
|------------------------------------------------------------------------------------------------|
|------------------------------------------------------------------------------------------------|
|------------------------------------------------------------------------------------------------|
|------------------------------------------------------------------------------------------------|
|------------------------------------------------------------------------------------------------|

Bridge 4:
Guitar 1:
|-----------|        |-------------|
|-----------|x3 then |-------------|
|-----------|        |-------------|
|-----------|        |-------------|
|---3-5-5---|        |---3-5-5-5---|
|-----------|        |-------------|
^
Guitar 2                 |
Guitar two doesn't play  |
any actual notes but it  |
does a slide down at-----/
So the tab looks like this

Chorus/Outro:                                             Play this one first 3 times
|--------------------------------------------------------|-----------------------|
|--------------------------------------------------------|-----------------------|x4
|---7---7---5--7--7---10--10-12--10-7--5-----------------|--10--10-12--10-7--5---|
|---7---7---5--7--7---10--10-12--10-7--5--8---8--7--8--8-|--10--10-12--10-7--5---|
|---5---5---3--5--5---8---8--10--8--5--3--8---8--7--8--8-|--8---8--10--8--5--3---|
|-----------------------------------------6---6--5--6--6-|-----------------------|
We're all for one...

On the fourth time play this
|------------------------------------------------|
|------------------------------------------------|
|--------------------10-10-10-10/12-10-7--5--7---|
|---7-8-8-7-8-8-7----10-10-10-10/12-10-7--5--7---|
|---7-8-8-7-8-8-7----8--8--8--8//10-8--5--3--5---|
|---5-6-6-5-6-6-5--------------------------------|

In addition to Chords / Tabs Kiss - All For The Glory (First Version), we offer an excerpt from a random book.He said that he respects our films and knows our love for music - and therefore trusts us.

LiveInternet