AllChordsTabs.com

Jewel - Pieces Of You (Second Version) Chords and Tabs


Artists:
Chords and Tabs » J » Jewel - Pieces Of You (Second Version)

Jewel - Pieces Of You (Second Version)

Jewel - Pieces Of You (Second Version) Chords / Tabs

Jewel - Pieces Of You Second Version: chords and tabs for the song. Watch chords and tablatures for all songs of the singer (group) Jewel. Other chords and tabs for the "Pieces Of You" can find at the bottom of the page.

Pieces  Of You
By Jewel



E---------1--0--1--------------1--0--1--------------1--0--1-----------
B------------------3--------------------3--------------------3--------
G------2--------------------2--------------------2--------------------
D---0--------------------0--------------------0-----------------------
A---------------------------------------------------------------------
E---------------------------------------------------------------------
Dm


E---------1--0--1-----------------3--------------------3--------------
B------------------3-----------3-----3--------------3-----3-----------
G------2--------------------0-----------0--------0-----------0--------
D---0-----------------------------------------------------------------
A---------------------------------------------------------------------
E------------------------3--------------------3-----------------------
G


E---------1--0--1--------------1--0--1--------------1--0--1-----------
B------------------3--------------------3--------------------3--------
G------2--------------------2--------------------2--------------------
D---0--------------------0--------------------0-----------------------
A---------------------------------------------------------------------
E---------------------------------------------------------------------

Dm		(keep same arpegios going with words)


E---------1--0--1--------------1--0--1--------------------------------
B------------------3--------------------3-----------------------------
G------2--------------------2-----------------------------------------
D---0--------------------0--------------------------------------------
A---------------------------------------------------------------------
E---------------------------------------------------------------------
She's an ugly girl
G					     Dm
Does it make you want to kill her
G			    Dm
She's an ugly girl do you want to kick in her face
G			   Dm
She's an ugly girl she doesn't pose a threat
G
She's an ugly girl does that make you feel safe

E------------0-----------------------0-----------------------0--------
B---------------------------------------------------------------------
G---------2-----2-----------------2-----2-----------------0-----0-----
D------2-----------2-----------2-----------2-----------2--------------
A---0-----------------0-----2-----------------2-----3-----------------
E---------------------------------------------------------------------
ugly girl                                          Ugly girl


E---------------------0-----------------------3-----------------------
B------------------------------------------3-----3--------------------
G------------------0-----0--------------0-----------0-----------0-----
D---2-----------2-----------2--------------------------0--------------
A------3-----3-----------------3--------------------------------------
E------------------------------------3-----------------------3--------
Do you hate her          'cause


E------3-----------------------0-----------------------0--------------
B---3-----3-----------------------------------------------------------
G------------0--------------0-----0-----------------0-----0-----------
D---------------0--------2-----------2-----------2-----------2--------
A---------------------3-----------------3-----3-----------------3-----
E---------------------------------------------------------------------
she's pieces of you


E------------------3-----------------------3--------------------------
B---------------3-----3-----------------3-----3-----------------------
G------------0-----------0-----------0-----------0--------------------
D---------------------------0-----------------------0-----------------
A---------------------------------------------------------------------
E---------3-----------------------3-----------------------------------

Verse 2:
She's a pretty girl, does she make you think nasty thoughts
She's a pertty girl, do you want to tie her down
She's a pretty girl, do you call her a b**ch
She's a pretty girl, does she sleep with your whole town

Pretty girl, pretty Girl, Do you hate her 'cause she's pieces of you?
Verse 3: You say he's a faggot, does it make you want to hurt him You
say he's a faggot, do you want to kick in his brain You say he's a
faggot, does it make you sick to your stomach You say he's a
faggot,are you afraid you arn't just the same

Faggot, Faggot, do you hate him, 'cause he's pieces of you?

You say he's a Jew, does it mean that he's tight
You say he's a Jew, do you want to hurt his kids tonight
You say he's a Jew, he'll never wear that funny hat again
You say he's a Jew, as though being born were a sin

Oh jew,  Oh Jew, Do you hate him 'cause he's pieces of you
Do you hate him 'cause he's pieces of you

In addition to Chords / Tabs Jewel - Pieces Of You (Second Version), we offer an excerpt from a random book.You never know ... ”The Goncharovsky cathedrals grew from the depths! “I entered the gymnasium directly from the village.

LiveInternet