AllChordsTabs.com

Marduk - Autumnal Reaper (First Version) Chords and Tabs


Artists:
Chords and Tabs » M » Marduk - Autumnal Reaper (First Version)

Marduk - Autumnal Reaper (First Version)

Marduk - Autumnal Reaper (First Version) Chords / Tabs

Marduk - Autumnal Reaper First Version: chords and tabs for the song. Watch chords and tablatures for all songs of the singer (group) Marduk. Other chords and tabs for the "Autumnal Reaper" can find at the bottom of the page.

Downloaded from Apostasia web'zine.


Interviews, reviews, links, tabs etc.


MARDUK: AUTUMNAL REAPER (version 1.0 October '97)


< >...triplet

RIFF1
||--------||
||--------||
||--------||
||4--45-2-||
||-2------||
||--------||

RIFF2
||----------------||
||----------------||
||---2------------||
||245---542-40----||
||----------------||
||----------------||

RIFF3
||--------||
||--------||
||--------||
||-7------||
||0-78-5--||
||--------||

RIFF4
||--------------------------------||
||--------------------------------||
||--------------------------------||
||--------------------------------||
||6---7---6---7---3---4---3---434-||
||--------------------------------||
< >

RIFF5
||------------------------||
||------------------------||
||------------------------||
||1-24-21-----1-24-54-----||
||------------------------||
||------------------------||


RIFF6A
||------------------------||
||------------------------||
||------------------------||
||------------------------||
||0-24-64-----0-24-63-----||
||------------------------||

RIFF6B
||------------------------||
||------------------------||
||------------------------||
||------------------------||
||0-24-64-----0-24-6---05-||
||------------------------||


RIFF6
||----||
||----||
||-8--||
||-8--||
||-6--||
||----||


Song-Structure:

Riff1
Riff2
Riff3
Riff4
Riff3
Riff2
Riff1
Riff4
Riff5A
Riff5B
Riff4
Riff6

In addition to Chords / Tabs Marduk - Autumnal Reaper (First Version), we offer an excerpt from a random book.It was at this time that Blaz de Bury wrote the play Goethe's Youth, which was accepted at the Odeon Theater.

LiveInternet