AllChordsTabs.com

Lifehouse - You And Me (First Version) Chords and Tabs


Artists:
Chords and Tabs » L » Lifehouse - You And Me (First Version)

Lifehouse - You And Me (First Version)

Lifehouse - You And Me (First Version) Chords / Tabs

Lifehouse - You And Me First Version: chords and tabs for the song. Watch chords and tablatures for all songs of the singer (group) Lifehouse. Other chords and tabs for the "You And Me" can find at the bottom of the page.

Song - You and Me
Band - Lifehouse
Tuning - Standard

Strumming Pattern - Down,Down,Up,Down,Up



Intro
G  Cadd9 G/F# G/B  Em7 Dsus4 Cadd9
e|--3----3----3----3----3---3----3---|
B|--3----3----3----3----3---3----3---|
G|--0----0----0----0----0---2----0---|
D|--0----2----0----0----2---0----0h2-|
A|--2----3----0----2----2---x----3---|
E|--3----x----2----x----0---x----x---|

Verse 1
G        Cadd9   G/F#       G/B
e|----3----------3------3----------3------|
B|----3----------3------3----------3------|
G|----0----------0------0----------0------|
D|----0----------2------0----------0------|
A|----2----------3------0----------2------|
E|----3----------x------2----------x------|
What day is it,   And in what month


Em7           Dsus4   Cadd9
e|---------3------------3--------3----|
B|---------3------------3--------3----|
G|---------0------------2--------0----|
D|---------2------------0--------0h2--|
A|---------2------------x--------3----|
E|---------0------------x--------x----|
This clock never seemed so alive


G      Cadd9
e|---3--------3-------|
B|---3--------3-------|
G|---0--------0-------|
D|---0--------2-------|
A|---2--------3-------|
E|---3--------x-------|
I can't keep up


G/F#             G/B
e|---3----------------3----|
B|---3----------------3----|
G|---0----------------0----|
D|---0----------------0----|
A|---0----------------2----|
E|---2----------------x----|
and I can't back down


Em7  Dsus4 Cadd9
e|--------------3-----3---3--------|
B|--------------3-----3---3--------|
G|--------------0-----2---0--------|
D|--------------2-----0---0h2------|
A|--------------2-----x---3--------|
E|--------------0-----x---x--------|
I've been losing so much time

Chorus 1
G    A7sus4 Cadd9
e|--------------3------3------3-----------------|
B|--------------3------3------3-----------------|
G|--------------0------0------0-----------------|
D|--------------0------2------2-----------------|
A|--------------2------0------3-----------------|
E|--------------3------x------x-----------------|
Cause it's you and me and all of the people


Em7        G   Em7       Dsus4
e|--------3---------3----3----------3----|
B|--------3---------3----3----------3----|
G|--------0---------0----0----------2----|
D|--------2---------0----2----------0----|
A|--------2---------2----2----------x----|
E|--------0---------3----0----------x----|
With nothing to do, nothing to lose


G    A7sus4  Cadd9
e|-----------3------3-------3-----------------|
B|-----------3------3-------3-----------------|
G|-----------0------0-------0-----------------|
D|-----------0------2-------2-----------------|
A|-----------2------0-------3-----------------|
E|-----------3------x-------x-----------------|
And it's you and me and all of the people


Em7            G    Em7          Dsus4       Cadd9
e|-----3-------------3-----3-------------3-----------3---|
B|-----3-------------3-----3-------------3-----------3---|
G|-----0-------------0-----0-------------2-----------0---|
D|-----2-------------0-----2-------------0-----------0h2-|
A|-----2-------------2-----2-------------x-----------3---|
E|-----0-------------3-----0-------------x-----------x---|
And I don't know why I can't keep my eyes off of you

Verse 2
G        Cadd9   G/F#           G/B Em7        Dsus4       Cadd9
e|--3----------3------3--------------3---3-----------3----------3----|
B|--3----------3------3--------------3---3-----------3----------3----|
G|--0----------0------0--------------0---0-----------2----------0----|
D|--0----------2------0--------------0---2-----------0----------0h2--|
A|--2----------3------0--------------2---2-----------x----------3----|
E|--3----------x------2--------------x---0-----------x----------x----|
All of the things that I want to say just aren't coming out right


G             Cadd9     G/F#         G/B
e|--3---------------3--------3------------3------|
B|--3---------------3--------3------------3------|
G|--0---------------0--------0------------0------|
D|--0---------------2--------0------------0------|
A|--2---------------3--------0------------2------|
E|--3---------------x--------2------------x------|
I'm tripping on words you got my head spinning


Em7             Dsus4       Cadd9
e|----3---------------3-----------3---|
B|----3---------------3-----------3---|
G|----0---------------2-----------0---|
D|----2---------------0-----------0h2-|
A|----2---------------x-----------3---|
E|----0---------------x-----------x---|
I don't know where to go from here

Chorus 2
G    A7sus4  Cadd9
e|-------------3------3-------3-----------------|
B|-------------3------3-------3-----------------|
G|-------------0------0-------0-----------------|
D|-------------0------2-------2-----------------|
A|-------------2------0-------3-----------------|
E|-------------3------x-------x-----------------|
Cause it's you and me and all of the people


Em7        G   Em7        Dsus4
e|-------3---------3----3----------3------|
B|-------3---------3----3----------3------|
G|-------0---------0----0----------2------|
D|-------2---------0----2----------0------|
A|-------2---------2----2----------x------|
E|-------0---------3----0----------x------|
With nothing to do, nothing to prove


G    A7sus4  Cadd9
e|-----------3------3-------3----------------|
B|-----------3------3-------3----------------|
G|-----------0------0-------0----------------|
D|-----------0------2-------2----------------|
A|-----------2------0-------3----------------|
E|-----------3------x-------x----------------|
And it's you and me and all of the people

Em7            G    Em7           Dsus4        G
e|-----3-------------3-----3-------------3-----------3---|
B|-----3-------------3-----3-------------3-----------3---|
G|-----0-------------0-----0-------------2-----------0---|
D|-----2-------------0-----2-------------0-----------0---|
A|-----2-------------2-----2-------------x-----------2---|
E|-----0-------------3-----0-------------x-----------3---|
And I don't know why I can't keep my eyes off of you

Bridge
Bm         C             G     Dsus2         Em7
e|--2---------0-------------3-------0------------3---|
B|--3---------1-------------3-------3------------3---|
G|--4---------0-------------0-------2------------0---|
D|--4---------2-------------0-------0------------2---|
A|--2---------3-------------2-------x------------2---|
E|--x---------0-------------3-------x------------0---|
Something about you now, I can't quite figure out

Am                  Dsus2
e|------0---------------------0-----|
B|------1---------------------3-----|
G|------2---------------------2-----|
D|------2---------------------0-----|
A|------0---------------------x-----|
E|------0---------------------x-----|
Everything she does is beautiful

Bm           Cm
e|------2------------3-----|
B|------3------------4-----|
G|------4------------5-----|
D|------4------------5-----|
A|------2------------3-----|
E|------x------------x-----|
Everything she is right

Chorus 3
G    A7sus4  Cadd9
e|-------------3------3-------3-----------------|
B|-------------3------3-------3-----------------|
G|-------------0------0-------0-----------------|
D|-------------0------2-------2-----------------|
A|-------------2------0-------3-----------------|
E|-------------3------x-------x-----------------|
Cause it's you and me and all of the people

Em7        G   Em7        Dsus4
e|--------3---------3----3----------3----|
B|--------3---------3----3----------3----|
G|--------0---------0----0----------2----|
D|--------2---------0----2----------0----|
A|--------2---------2----2----------x----|
E|--------0---------3----0----------x----|
With nothing to do, nothing to lose


G    A7sus4  Cadd9
e|-----------3------3-------3----------------|
B|-----------3------3-------3----------------|
G|-----------0------0-------0----------------|
D|-----------0------2-------2----------------|
A|-----------2------0-------3----------------|
E|-----------3------x-------x----------------|
And it's you and me and all of the people


Em7            G    Em7           Dsus4
e|-----3-------------3-----3-------------3----------|
B|-----3-------------3-----3-------------3----------|
G|-----0-------------0-----0-------------2----------|
D|-----2-------------0-----2-------------0----------|
A|-----2-------------2-----2-------------x----------|
E|-----0-------------3-----0-------------x----------|
And I don't know why I can't keep my eyes off of


G    A7sus4  Cadd9
e|--3------3-------3----------------|
B|--3------3-------3----------------|
G|--0------0-------0----------------|
D|--0------2-------2----------------|
A|--2------0-------3----------------|
E|--3------x-------x----------------|
you and me and all of the people


Em7        G   Em7        Dsus4
e|-------3---------3----3----------3----|
B|-------3---------3----3----------3----|
G|-------0---------0----0----------2----|
D|-------2---------0----2----------0----|
A|-------2---------2----2----------x----|
E|-------0---------3----0----------x----|
with nothing to do, nothing to prove


G    A7sus4  Cadd9
e|-----------3------3-------3----------------|
B|-----------3------3-------3----------------|
G|-----------0------0-------0----------------|
D|-----------0------2-------2----------------|
A|-----------2------0-------3----------------|
E|-----------3------x-------x----------------|
And it's you and me and all of the people


Em7            G    Em7          Dsus4         G
e|-----3-------------3-----3-------------3-----------3--|
B|-----3-------------3-----3-------------3-----------3--|
G|-----0-------------0-----0-------------2-----------0--|
D|-----2-------------0-----2-------------0-----------0--|
A|-----2-------------2-----2-------------x-----------2--|
E|-----0-------------3-----0-------------x-----------3--|
And I don't know why I can't keep my eyes off of you


G  Cadd9 G/F# G/B  Em7 Dsus4 Cadd9
e|--3----3----3----3----3---3----3---|
B|--3----3----3----3----3---3----3---|
G|--0----0----0----0----0---2----0---|
D|--0----2----0----0----2---0----0h2-|
A|--2----3----0----2----2---x----3---|
E|--3----x----2----x----0---x----x---|

Verse 3
G        Cadd9   G/F#       G/B
e|----3----------3------3----------3------|
B|----3----------3------3----------3------|
G|----0----------0------0----------0------|
D|----0----------2------0----------0------|
A|----2----------3------0----------2------|
E|----3----------x------2----------x------|
What day is it,   And in what month


Em7          Dsus4    Cadd9
e|---------3------------3--------3----|
B|---------3------------3--------3----|
G|---------0------------2--------0----|
D|---------2------------0--------2----|
A|---------2------------x--------3----|
E|---------0------------x--------x----|
This clock never seemed so alive

In addition to Chords / Tabs Lifehouse - You And Me (First Version), we offer an excerpt from a random book.This is a new thing for me, so I call the singer and say, "Teach me everything you know."

LiveInternet