AllChordsTabs.com

King Crimson - Eyes Wide Open (First Version) Chords and Tabs


Artists:
Chords and Tabs » K » King Crimson - Eyes Wide Open (First Version)

King Crimson - Eyes Wide Open (First Version)

King Crimson - Eyes Wide Open (First Version) Chords / Tabs

King Crimson - Eyes Wide Open First Version: chords and tabs for the song. Watch chords and tablatures for all songs of the singer (group) King Crimson. Other chords and tabs for the "Eyes Wide Open" can find at the bottom of the page.

Eyes Wide Open (from the album Happy With What You Have to be Happy With)
tablature by: Isaac Yoho (metalmaster1999)

This is my first tab and I am almost completely sure it's 100% correct.
There are two guitars playing over each other and the layering is quite
advanced. It won't sound correct if you play it without the other layer, so
either find another guitarist to harmonize with or just play over the song.
One last thing, the timing is weird in some places, so you need to listen to
the song to get it right. It was very hard to do this by ear, so please rate
it well and take it easy on the comments.

Intro/transition/ending
both guitars
e|-----------12------|-----------11~----|
B|------9-10----9-10-|------9-10--------|
G|-------------------|------------------|
D|-------------------|------------------|
A|0------------------|------------------|
E|-------------------|8-----------------|

Pre-verse/chorus
guitar 1
e|---------------|-------------0-|
B|-------------0-|---------------|
G|---6-----------|---6-----------| x4
D|-----------6---|-----------6---|
A|4--------7-----|4--------7-----|
E|-----4-5-------|-----4-5-------|

Pre-verse/chorus
guitar 2 (harmony)
e|------------|------------|------------|------------|
B|---5--------|4-----5-----|---7-----5--|4-----5-----|
G|---------3--|------------|4-----------|------------| x2
D|------6-----|---6-----6--|------6-----|---6-----6--|
A|4-----------|------------|------------|------------|
E|------------|------------|------------|------------|

Verse                                             play this the
guitar 1                                          1st 2nd and 4th
e|---------------|---------------|---------------|-----------|
B|---------------|---------------|---------------|-----------|
D|---5-----------|---5---------8-|---5-----------|---5-----8-| x4
G|---------5---8-|---------5-----|---------5---8-|-----5-6---|
A|3--------------|3--------------|3--------------|3----------|
E|-----x-3---6---|-----x-3---x---|-----x-3---6---|-----------|
play this the 3rd time
|-----------------------|
|---------------------4-|
|---5---------3---------|
|-----x-3-4-5---3-4-5---|
|3----------------------|
|-----------------------|

Verse                                    play this the
guitar 2                                 1st 2nd and 4th
e|------------|------------|------------|------------|
B|---4--------|3-----4-----|---6-----4--|3--------3--|
D|---------3--|------------|3-----------|-----2-3----|
G|------5-----|---5-----5--|------5-----|---5--------|
A|3-----------|------------|------------|------------|
E|------------|------------|------------|------------|
play this the 3rd time
|-----------------------|
|3------------4-------4-|
|-----x-2-3-5---2-3-5---|
|---5-------------------|
|-----------------------|
|-----------------------|

Solo
just guitar 1
e|--------------------|-------9---------9--|--------------------|
B|---9--10-----9--10--|---12--------12-----|---9--10-----9--10--|
D|6---------6---------|8---------8---------|6---------6---------|
G|--------------------|--------------------|--------------------|
A|--------------------|--------------------|--------------------|
E|--------------------|--------------------|--------------------|

|-------9---------9--|---9--10-----9--10--|-------12-----------|
|---12--------12-----|7---------7---------|9--10------9--10--9-|
|8---------8---------|--------------------|--------------------|
|--------------------|--------------------|--------------------|
|--------------------|--------------------|--------------------|
|--------------------|--------------------|--------------------|

|---9--10-----9--10--|--------------------|
|7---------7---------|--------------------|
|--------------------|---8--9-------------|
|--------------------|6-------------------|
|--------------------|--------------------|
|--------------------|---------8~---------|

Ordering:
Intro
Pre-verse
Verse
Chorus
Verse
Chorus
Transition
Solo
Verse
Chorus
Ending

THANK YOU FOR USING MY TAB

In addition to Chords / Tabs King Crimson - Eyes Wide Open (First Version), we offer an excerpt from a random book.The fact that this spirit gradually disappears is explained by the fact that the world is coming to its end.

LiveInternet