AllChordsTabs.com

Marilyn Manson - A Place In The Dirt (Second Version) Chords and Tabs


Artists:
Chords and Tabs » M » Marilyn Manson - A Place In The Dirt (Second Version)

Marilyn Manson - A Place In The Dirt (Second Version)

Marilyn Manson - A Place In The Dirt (Second Version) Chords / Tabs

Marilyn Manson - A Place In The Dirt Second Version: chords and tabs for the song. Watch chords and tablatures for all songs of the singer (group) Marilyn Manson. Other chords and tabs for the "A Place In The Dirt" can find at the bottom of the page.

Marilyn Manson - A Place In The Dirt
Dif.: 5

NOTE: * = strum 8x

Intro (Gtr. 2) (w/ octave pedal set one step higher)
E|-19~~~~--------19~~~----------|
B|--------19~~~----------19~~~--|
^ turn off octave pedal

Verse (Gtr. 2) (“We are damned……”)
E|-----------------------19----17----15----14-----|
B|--12------12-------------------------------------|
G|------11------11---------------------------------|

Verse P2 (Gtr. 1) (“There’s a windshield……”) (clean)
E|--2*--2*--2*--2*--2*--0*--3*--2*---|
B|--3*--2*--3*--2*--3*--2*--0*--2*---|
G|--4*--3*--4*--3*--4*--2*--0*--3*---|
D|--4*--4*--4*--4*--4*--2*--0*--4*---|
A|--2*--4*--2*--4*--2*--0*--2*--4*---|
E|------2*------2*----------3*--2*---|

Verse P2 (Gtr. 2) (w/ octave pedal set one step higher)
e|--19-----17---15---14----|
^ turn off octave pedal ("Could you stop...")

Verse P2 (Gtr. 3) (“Could you please…….”)
B|-----12-12-|-%-|-%-|-%-|
G|--11-------|-%-|-%-|-%-|

Chorus (w/ heavy ass dist.) (“put me in the motorcade….”)
D|-5*-8*-|-%-|-%-|-5*-2*-|
A|-5*-8*-|-%-|-%-|-5*-2*-|
E|-3*-6*-|-%-|-%-|-3*-2*-|

Verse 2/End(Gtr. 1) (Clean)
E|--2*--2*--2*--2*--2*--0*--3*--2----|
B|--3*--2*--3*--2*--3*--2*--0*--2----|
G|--4*--3*--4*--3*--4*--2*--0*--3----|
D|--4*--4*--4*--4*--4*--2*--0*--4----|
A|--2*--4*--2*--4*--2*--0*--2*--4----|
E|------2*------2*----------3*--2----|

Fill 1 (Gtr. 1) (w/ dist.)
E|-1/2-/3-|

Song Structure: -
Intro
Verse (Gtr. 2)/With weird effects in background
Verse P2 (Gtr. 1)/Verse P2 (Gtr. 2)/Verse P2 (Gtr. 3) (Gtr. 2 + Gtr. 3 come in later)
Chorus (Gtr. 1)
Verse 2 (Gtr. 1) (“Angels with needles…”)/Verse P2 (Gtr. 2) (“We were no longer…..”)
Fill 1 (Gtr. 1)
Chorus (Gtr. 1)
End (Gtr. 1)
Various sh*t Effects

Oh yah…… It’s a tough world…. Let me ask you…….. Nevermind. If you have any
Artist    : Marilyn Manson
Album     : Holy Wood (In The Shadow Of The Valley Of Death)
Song      : Track #9 - A place in the dirt

Tuning: Standard (EADGBE)

Key :

* = play note 8 times
~ = vibrate note

Intro synth noises for guitar :

E|-19~-----19~-----7~----7~----19~-17~-15~-14~-|
B|-----19~-----19~----7~----7~-----------------|
!
^Vocals start here

Clean guitar :

Bm  Bmsus2 Bm Bmsus2 Bm B9sus4 G    F
E|-*2---*2---*2---*2---*2---*2---*2---*2-|
B|-*3---*2---*3---*2---*3---*2---*2---*2-|
G|-*4---*4---*4---*4---*4---*2---*0---*3-|
D|-------------------------------*0---*4-|
A|-------------------------------*2---*4-|
E|-------------------------------*3---*2-|

Chorus :

B|---------------------------------------|
G|---------------------------------------|
D|-*5---*6---*5---*8---*5---*8---*5---*4-|
A|-*5---*8---*5---*8---*5---*8---*5---*4-|
E|-*3---*8---*3---*6---*3---*6---*3---*2-|

End the song on an F chord.




======

Album:Holy Wood(In the Shadow of the Valley of Death)

Intro & Verse (Keyboard)

E|-19~~~~~-------19~~~~-------7~~~~-----7~~~~-----19~~~-17~~~-15~~~-14~~~-|
B|--------19~~~~-------19~~~~------7~~~~-----7~~~~------------------------|
G|------------------------------------------------------------------------|
D|------------------------------------------------------------------------|
A|------------------------------------------------------------------------|
E|------------------------------------------------------------------------|
|
Vocals start here


Verse Part 2 (clean)

E|-22222222-22222222-22222222-22222222-22222222-22222222-22222222-22222222--|
B|-33333333-22222222-33333333-22222222-33333333-22222222-22222222-22222222--|
G|-44444444-44444444-44444444-44444444-44444444-22222222-00000000-33333333--|
D|-------------------------------------------------------00000000-44444444--|
A|-------------------------------------------------------22222222-44444444--|
E|-------------------------------------------------------33333333-22222222--|
*START THE KEYBOARD HERE
In the backgorund    E|--7~~~~
Keyboard           B|-------7~~~~9789789789789789789789789789789789789--|
(the volumen here is lower to higher)


Chorus (Distortion)

E|-------------------------------------------------------------------------|
B|-------------------------------------------------------------------------|
G|-------------------------------------------------------------------------|
D|-55555555-88888888-55555555-88888888-55555555-88888888-55555555-44444444-|
A|-55555555-88888888-55555555-88888888-55555555-88888888-55555555-44444444-|
E|-33333333-66666666-33333333-66666666-33333333-66666666-33333333-22222222-|

End
whit the last chord of the Verse part 2 and a

E|----------|
B|--22^~~~--|Intro & Verse - x1
Verse Part 2 - x1
Chorus x 1
Verse Part 2 x 1 (whitout the part of the keyboard)
chorus - x1
Verse Part 2 - x1
End

In addition to Chords / Tabs Marilyn Manson - A Place In The Dirt (Second Version), we offer an excerpt from a random book.- She began, and suddenly shyly fell silent, not wanting to continue the delicate interrogation.

LiveInternet