AllChordsTabs.com

Ligabue - Questa La Mia Vita (First Version) Chords and Tabs


Artists:
Chords and Tabs » L » Ligabue - Questa La Mia Vita (First Version)

Ligabue - Questa La Mia Vita (First Version)

Ligabue - Questa La Mia Vita (First Version) Chords / Tabs

Ligabue - Questa La Mia Vita First Version: chords and tabs for the song. Watch chords and tablatures for all songs of the singer (group) Ligabue. Other chords and tabs for the "Questa La Mia Vita" can find at the bottom of the page.

PROPS GO TO: Francesco "John" Capicotto

Ligabue
Questa ГЁ la mia vita
"Fuori come va ?"

Ho cercato di trascrivere le parti di tutte e due le chitarre.
Mi sono soffermato soprattutto su quella di Mel, anche perchГЁ si sente di piГ№ nella canzone.
La fine della parte dell'intro di Mel ГЁ usata anche dopo il rit. cosi come qulla di Fede
Per scrivere le note che fa il Liga nella canzone ho usato la notazione internazionale.
Per chi non la conoscesse ve le ho scritta qui a fianco
A=LA
B=SI
G    C   E-7   D4   D                                   C=DO
D=RE
e --3----3----3----3----2---|                               E=MI
B --3----3----3----3----3---|                               F=FA
G --0----0----0----2----2---|                               G=SOL
D --0----2----2----0----0---|
A --2----3----2----0----0---|
E --3----0----0-------------|



Intro (Mel)

prima parte intro
e  ----------------------------------|
B  -0/8~--7--0/8~--8/10-8-7--0/8~--7-|
G  ----------------------------------|
D  ----------------------------------|
A  ----------------------------------|
E  ----------------------------------|

e  -----------------------------------------3-3-2----3-3-2--|
B  --------------------------------8888888--3-----3--3------|
G  -----------5555555444444-99999999999999--2--------2------|
D  -----------5555555555555-99999999999999--0--------0------|
A  -555555555-3333333333333-77777777777777------------------|
E  -333333333-----------------------------------------------|


Intro; dopo rit. (Fede)

Fede inizia dopo che Mel ha suonato la prima parte del suo intro.

e  -000000000000000000-----000000000000000000-----0000000000000000000---3-3-2---101010101010--|
B  -000001111133333333-----000001111133333333-----0000011111333333333---3-----3---------------|
G  -000000000000000000-----000000000000000000-----0000000000000000000---3---------------------|
D  -000000000000000000-----222222222222222222-----2222222222222222222---0---------------------|
A  -222222222222222222-----333333333333333333-----2222222222222222222-------------------------|
E  -333333333333333333------------------------------------------------------------------------|


Versi (Mel)

e  --------------------------------------------------------------|  Questa ГЁ la mia vita
B  -0/8~--0/8~--8/10-8-7-0/8~--7-------8/10-8-7-------8/10-8-7---|  se ho bisgno te lo dico
G  -----------7------------------7/97----------7/97------------|  sono io che guido
D  --------------------------------------------------------------|  io che vado fuori strada
A  --------------------------------------------------------------|  sempre io che pago non ГЁ mai
E  --------------------------------------------------------------|  successo che pagassero per me

e  -----------------------------------------------------------------| Questa ГЁ la mia vita
B  -0/8~-7--0/8~--8/10-8-7--0/8~--7--------8/10-8-7-------8/10-8-7--| se entri chiedimi permesso
G  -------------7----------------7---7/97----------7/97-----------| portami una gita fammi
D  -----------------------------------------------------------------| ridere di gusto porta la
A  -----------------------------------------------------------------| tua vita che vediamo che
E  -----------------------------------------------------------------| succede a mescolorle un pГІ

Rit. (Fede)

e  -----7----------7-------7--------7---7----|
B  ---8------8---8---8---7---7----8-----8----|
G  -9------7-----------7---------9------7----|
D  -------------------------------------0----|
A  ------------------------------------------|
E  ------------------------------------------|

Post rit. (Fede)

e  -000000000000000000-----000000000000000000-----0000000000000000000---3-3-2---101010101010--|
B  -000001111133333333-----000001111133333333-----0000011111333333333---3-----3---------------|
G  -000000000000000000-----000000000000000000-----0000000000000000000---3---------------------|
D  -000000000000000000-----222222222222222222-----2222222222222222222---0---------------------|
A  -222222222222222222-----333333333333333333-----2222222222222222222-------------------------|
E  -333333333333333333------------------------------------------------------------------------|

Rit. (Mel)

e  -0-----3-----7-------7------0----3------|
B  -1-----0---8---8---7---7----1----3------|
G  -0-----0---------7----------0----0------|
D  -2-----0--------------------2----0------|
A  -3-----2--------------------3----2------|
E  -------3-------------------------3------|

Post rit. (Mel)

e  -----------------------------------------3-3-2----3-3-2--|
B  ---------------------------------888888--3-----3--3------|
G  -----------5555555444444-99999999999999--2--------2------|
D  -----------5555555555555-99999999999999--0--------0------|
A  -555555555-3333333333333-77777777777777------------------|
E  -333333333-----------------------------------------------|

Versi (Mel)

e  -----------------------------------------------------------------| Questa ГЁ la mia vita
B  -0/8~-7--0/8~-8/12--7-8-9-9p8---7--------8/10-8-7-------8/10-8-7-| sono quello che ci pensa
G  -------------------------------7---7/97----------7/97----------| porta un paio d'ore
D  -----------------------------------------------------------------| una notte bella densa
A  -----------------------------------------------------------------| trattamela bene che al
E  -----------------------------------------------------------------| momento ho solo questa
e poi... vederemo poi

e  ------------------------------------------------------------------| Questa ГЁ la mia vita
B  -0/8~--7--0/8~---8/10-8-7--0/8~--7--------8/10-8-7-------8/10-8-7-| certi giorni non si batte
G  ------7--------7----------------7---7/97----------7/97----------| certi altri ГЁ meno ГЁ cosi
D  ------------------------------------------------------------------| che va per tutti certi
A  ------------------------------------------------------------------| giorni ГЁ poca certi giorni
E  ------------------------------------------------------------------| sembra troppa e invece non
lo ГЁ mai

Rit. (Fede)

e  -----7----------7-------7--------7---7----|
B  ---8------8---8---8---7---7----8-----8----|
G  -9------7-----------7---------9------7----|
D  -------------------------------------0----|
A  ------------------------------------------|
E  ------------------------------------------|

Post rit. (Fede)

e  -000000000000000000-----000000000000000000-----0000000000000000000---3-3-2---101010101010--|
B  -000001111133333333-----000001111133333333-----0000011111333333333---3-----3---------------|
G  -000000000000000000-----000000000000000000-----0000000000000000000---3---------------------|
D  -000000000000000000-----222222222222222222-----2222222222222222222---0---------------------|
A  -222222222222222222-----333333333333333333-----2222222222222222222-------------------------|
E  -333333333333333333------------------------------------------------------------------------|


Rit. (Mel)

e  -0-----3-----7-------7------0----3------|
B  -1-----0---8---8---7---7----1----3------|
G  -0-----0---------7----------0----0------|
D  -2-----0--------------------2----0------|
A  -3-----2--------------------3----2------|
E  -------3-------------------------3------|

Post rit. (Mel)

e  -----------------------------------------3-3-2----3-3-2--|
B  ---------------------------------888888--3-----3--3------|
G  -----------5555555444444-99999999999999--2--------2------|
D  -----------5555555555555-99999999999999--0--------0------|
A  -555555555-3333333333333-77777777777777------------------|
E  -333333333-----------------------------------------------|


Versi (Mel)

e  --------------------------------------------------
B  --------------------------------------------------
G  --------------------------------------------------  Questa ГЁ la mia vita tieniteli tu
D  --------------------------------------------------  i consigli io non l'ho capita
A  --------------------------------------------------  figurati se tu fai meglio
E  --------------------------------------------------

e  --------------------------------------------------  Porta la tu vita
B  -8-7----------------------------------------------  e vediamo che succede
G  -----7-2/4~~2------------------------------------  a mescolorle un pГІ
D  --------------------------------------------------
A  --------------------------------------------------
E  --------------------------------------------------

e  --------------------------------------------------  Ma ora che ci sei dato che ci sei
B  --15~-15~--12~--10--8---15~-----------------------  fammi fare un giro su chi non sono stato
G  --------------------------------------------------  mai dato che ci sei come io vorrei
D  --------------------------------------------------
A  --------------------------------------------------
E  --------------------------------------------------


Post rit. (Fede)

e  -000000000000000000-----000000000000000000-----0000000000000000000---3-3-2---101010101010--|
B  -000001111133333333-----000001111133333333-----0000011111333333333---3-----3---------------|
G  -000000000000000000-----000000000000000000-----0000000000000000000---3---------------------|
D  -000000000000000000-----222222222222222222-----2222222222222222222---0---------------------|
A  -222222222222222222-----333333333333333333-----2222222222222222222-------------------------|
E  -333333333333333333------------------------------------------------------------------------|

Post rit. (Mel)

e  -----------------------------------------3-3-2----3-3-2--|
B  ---------------------------------888888--3-----3--3------|
G  -----------5555555444444-99999999999999--2--------2------|
D  -----------5555555555555-99999999999999--0--------0------|
A  -555555555-3333333333333-77777777777777------------------|
E  -333333333-----------------------------------------------|

Tutte e due le chitarre finiscono la canzone suonando il G



G
Questa ГЁ la mia vita

se ho bisogno te lo dico
C
sono io che guido

io che vado fuori strada
E-7
sempre io che pago
D4    D        D4   D
non ГЁ mai successo che pagassero per me
G
Questa ГЁ la mia vita

se entri chiedimi permesso
C
portami una gita

fammi ridere di gusto
E-7
porta la tua vita
D4    D         D4   D
che vediamo che succede a mescolarle un pГІ


Rit.
C
E ora che ci sei
G
dato che ci sei
E-7         D
fammi fare un giro su chi non sono stato mai
C              G
dato che ci sei come io vorrei

(Dopo ogni rit. fate le note che usa Fede dopo il rit. senza   e ---101010101010--|
e suonando alla fine il D4 e il D alternandoli)

G
Questa ГЁ la mia vita

sono quello che ci pensa
C
porta un paio d'ore

una notte bella densa
E-7
trattamela bene
D4      D        D4   D
che al momento ho solo questa e poi... vederemo poi
G
Questa ГЁ la mia vita

certi giorni non si batte
C
certi altri ГЁ meno

ГЁ cosi che va per tutti
E-7
certi giorni ГЁ poca
D4    D       D4   D
certi giorni sembra troppa e invece non lo ГЁ mai


Rit.
C
E ora che ci sei
G
dato che ci sei
E-7             D
fammi fare un giro su chi non sono stato mai
C              G
dato che ci sei come io vorrei


(Questa parte non va suonata stando al cd, poi fate come volete voi!!)

Questa ГЁ la mia vita

tieniteli tu i consigli

io non l'ho capita

figurati se tu fai meglio

Porta la tu vita e vediamo che succede a mescolorle un pГІ


(L' ultimo rit. va suonato con singola pennata)

Rit.
C
Ma ora che ci sei
G
dato che ci sei
E-7         D
fammi fare un giro su chi non sono stato mai
C              G
dato che ci sei come io vorrei


Finale in G

In addition to Chords / Tabs Ligabue - Questa La Mia Vita (First Version), we offer an excerpt from a random book.Should I enter your ninth cell as a sinner - After all, to joy I cannot find a way.

LiveInternet