AllChordsTabs.com

Lifehouse - Fool (First Version) Chords and Tabs


Artists:
Chords and Tabs » L » Lifehouse - Fool (First Version)

Lifehouse - Fool (First Version)

Lifehouse - Fool (First Version) Chords / Tabs

Lifehouse - Fool First Version: chords and tabs for the song. Watch chords and tablatures for all songs of the singer (group) Lifehouse. Other chords and tabs for the "Fool" can find at the bottom of the page.

[Intro]

Eb|--------------------------------|
Bb|--------------------------------|
Gb|--------------------------------|
Db|----0---2---4-------0-----------|
Ab|--0---0-----------0---0-1---3/5-|  x4
Eb|0---------0-----0---------0-----|


[Verse]

Eb|--5-----5-------------------------5-----5-----------------------|
Bb|----3-----3---------3-------3-------3-----3---------3-----------|
Gb|----------------2/3---3---0---------------------2/3---3---------|
Db|0-----------------------2-------0-----------------------5-------|
Ab|----------------------------------------------------------------|
Eb|----------------------------------------------------------------|

Eb|--5-----5-------------------------5-----5-----------------------|
Bb|----3-----3---------3-------3-------3-----3---------3-----------|
Gb|----------------2/3---3-------------------------2/3---3---------|
Db|0-----------------------5-5-----0-----------------------2-------|
Ab|----------------------------------------------------------------|
Eb|----------------------------------------------------------------|


[Bridge]
Bm                 A   G
'cause I am reaching for you...
Bm              A   G
And I am running to you...
Bm             A   G
And I am crying to you...
Bm          A              G
And I am waiting for you...
G
Trying not to fall asleep now


[Chorus]
D
I am clumsily...
Bm
I am stumbling...
Em
Tumbling over...
G             A
I will be a fool... for you (straight back into Intro)

In addition to Chords / Tabs Lifehouse - Fool (First Version), we offer an excerpt from a random book.Therefore, he takes on such a rare variation of a wandering plot as "Don Juan's old age."

LiveInternet