AllChordsTabs.com

Mark Knopfler - Golden Heart (First Version) Chords and Tabs


Artists:
Chords and Tabs » M » Mark Knopfler - Golden Heart (First Version)

Mark Knopfler - Golden Heart (First Version)

Mark Knopfler - Golden Heart (First Version) Chords / Tabs

Mark Knopfler - Golden Heart First Version: chords and tabs for the song. Watch chords and tablatures for all songs of the singer (group) Mark Knopfler. Other chords and tabs for the "Golden Heart " can find at the bottom of the page.

Intro
Q=130
4/4
Key: G Major


|-------------------|---------------------|
|-------0-(0)-------|---------------------|
|---0h2-0-(0)-----0h|=2--0-0-(0)----------|
|---0h2-------------|-4-------------------|
|-------------------|---------------------|
|-3-----------------|---------------------|



|-^-3-----5p3p=2------0-|-(0)--3----------|
|-^-3-----------------1-|-(1)---------5s3-|
|-^-0---------------0-0-|-(0)-------------|
|-----------------------|-----------------|
|-^(2)------------------|-----------------|
|-----------------------|-----------------|



|---3---------------|---------------------|
|-5---------------3-|-(3)-----------------|
|-----4----4--2-0---|--------4-(4)--------|
|-------------------|------5---------3s5--|
|-------------------|---------------------|
|-------------------|---------------------|



|--------------------|--------------------|
|--5-----5-----3-----|--3-----3s=1------0-|
|------0-------------|--------------------|
|-(5)-------5----5p4-|-(4)--4----2------0-|
|--------------------|--------------------|
|--------------------|--------------------|


|---------------------|-------------------|
|-(0)-------3------1-|-(1)---------------|
|------0----4------2-|-(2)-0-0-----------|
|-(0)-----------------|-------------------|
|---------------------|-------------------|
|---------------------|-------------------|



|-^-3-----5--5p=3p2---|-0----3-(3)---0----|
|-^-3---------------0-|-1--1-------1------|
|-^-0-----------------|-0--------------0--|
|---------------------|-------------------|
|-^(2)----------------|-------------------|
|---------------------|-------------------|



|-----3-------------|-------------------|------------------|-------------------|
|-3h5---3-----------|-3-----------------|-1--1-3p=1p=0-----|--------0-(0)--0---|
|-4--------2h=4p2-0-|---0h4-4-(4)---4---|-0------------0-2-|-(2)----0-(0)----0-|
|-------------------|-----------------2-|-2------------0---|--0-----0-(0)------|
|-------------------|-------------------|------------------|-------------------|
|-------------------|-------------------|------------------|-----------3-------|



Verse
G                         D      G
She was swinging by the bangles in a main street store

G7/B              C
A while before we met

G
The most dangerous angles that you ever saw

C          D
She spied her amulet

G                           D         G
And she took a loop of leather for around her neck

G7/B                  C
And that was then the start

G
The most dangerous lady on her quarterdeck, she

C         D       G          C         D      G
Found her golden heart,      found her golden heart


G                               D      G
Then we swirled around each other and the thread was spun

G7/B             C
to some Arcadian band

G
I would stop it from swinging like a pendulum

C               D
Just to hold time in my hand

G                           D     G
And you shot me with a cannonball of history

G7/B               C
And long forgotten art

G
I'd be turning it over as our words ran free

C         D      G
I'd hold your Golden Heart

C         D      G
I'd hold your Golden Heart



Chorus

|  C                    D        Em          C       Em   Am      G/B
Nothing in the world prepared me for your heart,  your heart

C                    D      Em              C
Nothing in the world that I love more, your heart

Em   Am    D/F#      C      D
Your heart,     your golden heart

G           G/B    C     G
Your golden heart, your golden heart

G/B    C                  D
Your golden heart,  your golden heart,  golden heart




Guitar Solo


|--2-2-2-2-(2)-------|---------------------|
|--3-3-3-3-(3)-------|-------3-------------|
|--2-2-2-2-(2)-0---2-|-2s4-4----5p=4-2p0---|
|--0---0-------------|---------------------|
|--------------------|---------------------|
|--------------------|---------------------|


|--------------------|-^3-----5p=3p=0------|
|--------------------|-^3------------------|
|-2-----0-(0)--------|-^0-------------0-0--|
|-4------------------|---------------------|
|--------------------|---------------------|
|--------------------|---------------------|


|--------------------|-----3---------------|
|-5--------5--7---5s-|=3s5-----------------|
|-------0--5---------|-------4-(4)h5p4-4-2-|
|--------------------|---------------------|
|--------------------|---------------------|
|--------------------|---------------------|


|--------------------|---------------------|
|-----3--------------|---------------------|
|--0----4-----2p0----|----0----4----0-0----|
|----------0------2--|-2----2--------------|
|--------------------|---------------------|
|--------------------|---------------------|


|--------------------|---------------------|
|-----------------3--|-------0h=3------0h--|
|-2-----4p2p=0----2--|-2s4---0h=4------0h--|
|-0---------------0--|-3s5-----------------|
|--------------------|---------------------|
|--------------------|---------------------|


|--------------------|---------------------|
|-3----3-(3)---------|-^8-----8-10----8---7|
|-2--0-4-(4)---------|-^7-----7-------7---7|
|--------------------|---------------------|
|--------------------|---------------------|
|--------------------|---------------------|


|--------------------|---3------3--5---0---|
|-5-----7-7s=8-------|---------------------|
|-5-----7-8s=9-----0-|-4-----4-------------|
|--------------------|---------------------|
|--------------------|---------------------|
|--------------------|---------------------|



|--------3-----------|---------------------|
|--3---3-3-------3---|---------------------|
|----4------4--4-----|-5--5-7p=5-----------|
|--------------------|-5----5-----5-5-4----|
|--------------------|------------7-7------|
|--------------------|---------------------|



|--------------------|---------------------|
|--------------------|---------------------|
|-2-----4-(4)---2-0--|-(0)-5---2-2-4p2p0---|
|-4-----5-(5)---4-0--|-(0)-5---4-----------|
|--------------------|---------------------|
|--------------------|---------------------|


Verse

G                               D       G
And every time I'm thinking of you from a distant shore

G7/B                    C
And all the time I sleep

G
I will have a reminder that my baby wore

C                 D
A part of you to keep


G                        D          G
And I'll send you all my promises across the sea

G7/B                   C
And while we are apart

G
I will carry the wonder that you gave to me

C              D      G
I'll wear your Golden Heart

C              D      G
I'll wear your Golden Heart


C                    D        Em          C       Em   Am      G/B
Nothing in the world prepared me for your heart,  your heart

C                    D      Em              C
Nothing in the world that I love more, your heart

Em   Am    D/F#      C      D
Your heart,     your golden heart

G           G/B    C     G
Your golden heart, your golden heart

G/B    C                  D
Your golden heart,  your golden heart,  golden heart

G      C      D       G
Golden heart, heart,  heart

In addition to Chords / Tabs Mark Knopfler - Golden Heart (First Version), we offer an excerpt from a random book.- No, of course not you, - I was ready to tell him for the hundredth time that it was not his fault.

LiveInternet