AllChordsTabs.com

Mark Knopfler - Get Lucky (First Version) Chords and Tabs


Artists:
Chords and Tabs » M » Mark Knopfler - Get Lucky (First Version)

Mark Knopfler - Get Lucky (First Version)

Mark Knopfler - Get Lucky (First Version) Chords / Tabs

Mark Knopfler - Get Lucky First Version: chords and tabs for the song. Watch chords and tablatures for all songs of the singer (group) Mark Knopfler. Other chords and tabs for the "Get Lucky" can find at the bottom of the page.

-----------------------------------------------------------------------------
-----------------------------------------------------------------------------

Tuning: Standard

Capo: 4
Tempo: 180

Chords:

G7 [32300x]

Intro:


e|---------------3--------|-------------3----------|-------------3----------|
B|-------0----------------|-----1---------------1--|-----1---------------1--|
G|*------0-------------0--|------------------0-----|--------0---------0-----|
D|*------0----------0-----|--------2---------2-----|--------2---------2-----|
A|------------------------|------------------------|------------------------|
E|--3---------3-----------|--3----------3----------|--3----------3----------|


e|------------------------|---------------3--------|-------------3----------|
B|------------------------|-------0----------------|-----1------------------|
G|-------0----2-----------|-------0-------------0--|------------------0-----|
D|-------2---------0------|-------0----------0-----|--------2---------2-----|
A|------------------------|------------------------|------------------------|
E|--3---------3-----------|--3---------3-----------|--3----------3----------|

e|---------------3--------|-------------3----------|
B|------------------------|-----1------------------|
G|-------0-------------0--|--------0---------0----*|
D|-------2----------2-----|--------2---------2----*|
A|------------------------|------------------------|
E|--3---------3-----------|--3----------3----------|


G
I am better with my muscles

Than I am with my mouth
C/G
I work the fair grounds in the summer
G
Or go pick fruit down south
G
And when I feel them chilly winds

Where the weather goes I'll follow
G7          C
Pack up my travelling things
G
Go with the swallows

D/F#               D/F#  D7/F#
And I might get Lucky now and then
G        G/C
You win some
Am                 Am7  C
I might get lucky now and then
G        C/G  C/G
You win some


| G | C/G | C/G | C/G |
| G | C/G | C/G | C/G |
| G | C/G | C/G | C/G |

G
I wake up every morning

Keep an eye on what I spend
C/G
Got to think about eating
G
Got to think about paying the rent

I always think it's funny

It gets me every time
G7                      C/G
And what about happiness for money?
G
Tell it to the breadline

D/F#               D/F#  D7/F#
But you might get Lucky now and then
G        C
You win some
Am                 Am7  C
You might get Lucky now and then
G        C/G  G  G
Yeah you win some

[solo]:

| G | G | G | G |
| G  G7 | C/G | C/G | G |
| G | G | G | G |
| G | G7 | C | C |
| G | G | D/F# | D/F# |
| D/F# | D7/F# | G | C |
| Am | Am Am7 | C | C |
| G | C/G | G | G |

Bm
Now I'm a rambling through this meadow
Em                    Em7  C
Happy as a man can be
G           D/F#
Think I'll just lay me down
D7/F#  G
Under this old tree

On and on we go
G7
Through this old world a shuffling
C
If you've got a truffle dog
G
You can go truffling

D/F#               D/F#  D7/F#
And you might get Lucky now and then
G        C
You win some
Am                 Am7  C
You might get Lucky now and then
G        C/G  C/G
Yeah you win some


| G | C/G | C/G | C/G |
| G | C/G | C/G | C/G |
| G | C/G | C/G | C/G |
| G | C/G | C/G | C/G |
| G | C/G | C/G | C/G |
| G | C/G | C/G | C/G |
| G | C/G | C/G | C/G |
| G |

In addition to Chords / Tabs Mark Knopfler - Get Lucky (First Version), we offer an excerpt from a random book.“In general, so, deer,” Nabokov said slowly and separately, “I fixed your jamb.

LiveInternet