AllChordsTabs.com

Linkin Park - A Light That Never Comes (First Version) Chords and Tabs


Artists:
Chords and Tabs » L » Linkin Park - A Light That Never Comes (First Version)

Linkin Park - A Light That Never Comes (First Version)

Linkin Park - A Light That Never Comes (First Version) Chords / Tabs

Linkin Park - A Light That Never Comes First Version: chords and tabs for the song. Watch chords and tablatures for all songs of the singer (group) Linkin Park. Other chords and tabs for the "A Light That Never Comes" can find at the bottom of the page.

[Intro]
e|-------------------|
B|---8--11--8-(x8)---|
G|-------------------|
D|-------------------|
A|-------------------|
E|-------------------|

[Verse]
e|------------------------------------------------------------8------8-----|
B|---8--11--8---8--10--8---8--10--8---6--10--6---6--10--6---8---8--8---8---|
G|-------------------------------------------------------------------------| x2
D|-------------------------------------------------------------------------|
A|-------------------------------------------------------------------------|
E|-------------------------------------------------------------------------|

[Pre-Chorus]
e|----------------------------------|
B|----------------------------------|
G|--7~---7--5~---5--5~---7~---------|
D|----------------------------------| x2
A|----------------------------------|
E|----------------------------------|

[Chorus]
e|-------------------------------------------------------|
B|-------------------------------------------------------|
G|--11~---13--10~---12-13-12-13-12--14-14-12-12----------|
D|-------------------------------------------------------|
A|-------------------------------------------------------|
E|-------------------------------------------------------|

e|-------------------------------------------------------|
B|-------------------------------------------------------|
G|--10-11~---13--10~---12-13-12-13-12--14-14-12-12-------|
D|-------------------------------------------------------|
A|-------------------------------------------------------|
E|-------------------------------------------------------|

e|--------------------------------------------------------------------|
B|--------------------------11-11--------------------------10-10------|
G|---10-11-10-11-10--13-10~---------10-11-10-11-10--13-10~------------|
D|--------------------------------------------------------------------|
A|--------------------------------------------------------------------|
E|--------------------------------------------------------------------|

e|--------------------------------------------------------------------|
B|-----------------------------11-------------------------------------|
G|---10-11-10-11-10--13-12~-10------10-11-10-11-10--14-14-12-12-------|
D|--------------------------------------------------------------------|
A|--------------------------------------------------------------------|
E|--------------------------------------------------------------------|

[Interlude]
e|--------------------------------------------------------------------|
B|--------------------------------------------------------------------|
G|--4--4--4-4-4---10-10-10-13-13-12---4--4--4-4-4---10-10-10-5-5-6----|
D|--5--5--5-5-5-----------------------5--5--5-5-5---------------------|
A|--5--5--5-5-5-----------------------5--5--5-5-5---------------------|
E|--3--3--3-3-3-----------------------3--3--3-3-3---------------------|

e|----------------------------------------------------------------------------------|
B|----------------------------------------------------------------------------------|
G|--4--4--4-4-4---10-11-11-12-13-12-11--------------4--4--4-4-4---10-10-12-5-5-5-0--|
D|--5--5--5-5-5-------------------------------------5--5--5-5-5---------------------|
A|--5--5--5-5-5-------------------------------------5--5--5-5-5---------------------|
E|--3--3--3-3-3-------------------------------------3--3--3-3-3---------------------|

[Verse]
e|------------------------------------------------------------8------8-----|
B|---8--11--8---8--10--8---8--10--8---6--10--6---6--10--6---8---8--8---8---|
G|-------------------------------------------------------------------------|
D|-------------------------------------------------------------------------|
A|-------------------------------------------------------------------------|
E|-------------------------------------------------------------------------|

[Pre-Chorus]
e|----------------------------------|
B|----------------------------------|
G|--7~---7--5~---5--5~---7~---------|
D|----------------------------------| x2
A|----------------------------------|
E|----------------------------------|

[Chorus]
e|-------------------------------------------------------|
B|-------------------------------------------------------|
G|--11~---13--10~---12-13-12-13-12--14-14-12-12----------|
D|-------------------------------------------------------|
A|-------------------------------------------------------|
E|-------------------------------------------------------|

e|-------------------------------------------------------|
B|-------------------------------------------------------|
G|--10-11~---13--10~---12-13-12-13-12--14-14-12-12-------|
D|-------------------------------------------------------|
A|-------------------------------------------------------|
E|-------------------------------------------------------|

e|--------------------------------------------------------------------|
B|--------------------------11-11--------------------------10-10------|
G|---10-11-10-11-10--13-10~---------10-11-10-11-10--13-10~------------|
D|--------------------------------------------------------------------|
A|--------------------------------------------------------------------|
E|--------------------------------------------------------------------|

e|--------------------------------------------------------------------|
B|-----------------------------11-------------------------------------|
G|---10-11-10-11-10--13-12~-10------10-11-10-11-10--14-14-12-12-------|
D|--------------------------------------------------------------------|
A|--------------------------------------------------------------------|
E|--------------------------------------------------------------------|

[Bridge]
e|------------------------------------------------------------|
B|-----------------6-4---------6-4---------6-4----------------|
G|--7-7--5~--------7-5---------7-5---------7-5----------------|
D|--7-7--5~--7-4~--7-5---7-4~--7-5---7-4~--7-5---7-4~---------|
A|--5-5--3~--7-4~--5-3---7-4~--5-3---7-4~--5-3---7-4~---------|
E|-----------5-6~--------5-6~--------5-6~--------5-6~---------|

[Pre-Chorus]
e|-----------------------------------------------------------------|
B|-----------------------------------------------------------------|
G|--7~----------5~------------7~------------5~--5-5-5-5-5-5-5------|
D|-----------------------------------------------------------------|
A|-----------------------------------------------------------------|
E|-----------------------------------------------------------------|

[Chorus]
e|-------------------------------------------------------|
B|-------------------------------------------------------|
G|--11~---13--10~---12-13-12-13-12--14-14-12-12----------|
D|-------------------------------------------------------|
A|-------------------------------------------------------|
E|-------------------------------------------------------|

e|-------------------------------------------------------|
B|-------------------------------------------------------|
G|--10-11~---13--10~---12-13-12-13-12--14-14-12-12-------|
D|-------------------------------------------------------|
A|-------------------------------------------------------|
E|-------------------------------------------------------|

e|--------------------------------------------------------------------|
B|--------------------------11-11--------------------------10-10------|
G|---10-11-10-11-10--13-10~---------10-11-10-11-10--13-10~------------|
D|--------------------------------------------------------------------|
A|--------------------------------------------------------------------|
E|--------------------------------------------------------------------|

e|--------------------------------------------------------------------|
B|-----------------------------11-------------------------------------|
G|---10-11-10-11-10--13-12~-10------10-11-10-11-10--14-14-12-12-------|
D|--------------------------------------------------------------------|
A|--------------------------------------------------------------------|
E|--------------------------------------------------------------------|

In addition to Chords / Tabs Linkin Park - A Light That Never Comes (First Version), we offer an excerpt from a random book.So, you will have to transfer your resources to domestic production facilities.

LiveInternet