AllChordsTabs.com

Less Than Jake - Bad Scene And A Basement Show (Second Version) Chords and Tabs


Artists:
Chords and Tabs » L » Less Than Jake - Bad Scene And A Basement Show (Second Version)

Less Than Jake - Bad Scene And A Basement Show (Second Version)

Less Than Jake - Bad Scene And A Basement Show (Second Version) Chords / Tabs

Less Than Jake - Bad Scene And A Basement Show Second Version: chords and tabs for the song. Watch chords and tablatures for all songs of the singer (group) Less Than Jake. Other chords and tabs for the "Bad Scene And A Basement Show" can find at the bottom of the page.

Intro: (Play Fast)
e|------------Part One------------------|
B|--------------------------------------|
G|---------------33333333-88888888-5x7x5|
D|-5~---55555555-33333333-88888888-5x7x5| x2
A|-5~---55555555-11111111-66666666-3x5x3|
E|-3~---33333333------------------------|

e|-------Part Two-----------------------------|
B|--------------------------------------------|
G|----------33333333-88888888-5x7x5-33333333--|
D|-55555555-33333333-88888888-5x7x5-33333333--| x1
A|-55555555-11111111-66666666-3x5x3-11111111--|
E|-33333333-----------------------------------|

Verse:
e|-------------------------------------------|------|
B|-------------------------------------------|------|
G|-33xx3-3-3---88xx8-8-8---33xx3-3-3---8888--|-8888-|
D|-33xx3-3-3---88xx8-8-8---33xx3-3-3---8888--|-8888-| Bar 1   x1
A|-11xx1-1-1---66xx6-6-6---11xx1-1-1---6666--|-6666-| Bar 1+2 x1
E|-------------------------------------------|------|

Chorus:
e|------------Part One------------|
B|--------------------------------|
G|---------3-3-3-3--8-8-8-8--5-7-5|
D|5-5-5-5--3-3-3-3--8-8-8-8--5-7-5| x2
A|5-5-5-5--1-1-1-1--6-6-6-6--3-5-3|
E|3-3-3-3-------------------------|

e|--------Part Two--------------------|
B|------------------------------------|
G|----------3-3-3-3--8-8-8-8--5-5-5-5-|
D|-5-5-5-5--3-3-3-3--8-8-8-8--5-5-5-5-|
A|-5-5-5-5--1-1-1-1--6-6-6-6--3-3-3-3-|
E|-3-3-3-3----------------------------|

e|--------Part Two Continued-----------------|
B|-------------------------------------------|
G|-7-7-7-7-7-7-7-7—-5-5-5-5-5-5-5-5—-3-3-3-3-|
D|-7-7-7-7-7-7-7-7—-5-5-5-5-5-5-5-5—-3-3-3-3-| x1
A|-5-5-5-5-5-5-5-5—-3-3-3-3-3-3-3-3—-1-1-1-1-|
E|-------------------------------------------|

VERSE

Chorus.2:
e|------------Part One------------|
B|--------------------------------|
G|---------3-3-3-3--8-8-8-8--5-7-5|
D|5-5-5-5--3-3-3-3--8-8-8-8--5-7-5|
A|5-5-5-5--1-1-1-1--6-6-6-6--3-5-3| x2
E|3-3-3-3-------------------------|

e|--------Part Two--------------------|
B|------------------------------------|
G|----------3-3-3-3--8-8-8-8--5-5-5-5-|
D|-5-5-5-5--3-3-3-3--8-8-8-8--5-5-5-5-|
A|-5-5-5-5--1-1-1-1--6-6-6-6--3-3-3-3-|
E|-3-3-3-3----------------------------|

e|--------Part Two Continued--------|
B|----------------------------------|
G|-7-7-7-7-7-7-7-7—-5-5-5-5-5-5-5-5-|
D|-7-7-7-7-7-7-7-7—-5-5-5-5-5-5-5-5—| x1
A|-5-5-5-5-5-5-5-5—-3-3-3-3-3-3-3-3—|
E|----------------------------------|

e|---------------Part Three--------------------------|
B|---------------------------------------------------|
G|-3-3-3-3-3-3-3-3--8-8-8-8-8-8-8-8--5-5-5-5-5-5-5-5-|
D|-3-3-3-3-3-3-3-3--8-8-8-8-8-8-8-8--5-5-5-5-5-5-5-5-|
A|-1-1-1-1-1-1-1-1--6-6-6-6-6-6-6-6--3-3-3-3-3-3-3-3—|
E|---------------------------------------------------|

e|--Part Three Continued--|
B|------------------------|
G|-3-3-3-3-3-3-3-3--------|
D|-3-3-3-3-3-3-3-3--------| x2
A|-1-1-1-1-1-1-1-1--------|
E|------------------------|

e|----Part Four-----|
B|------------------|
G|--3-3--------3-3--|
D|--3-3-DRUMS--3-3--|
A|--1-1--------1-1-—|x1
E|------------------|

Chorus.3:
e|------------Part One------------|
B|--------------------------------|
G|---------3-3-3-3--8-8-8-8--5-7-5|
D|5-5-5-5--3-3-3-3--8-8-8-8--5-7-5| x2
A|5-5-5-5--1-1-1-1--6-6-6-6--3-5-3|
E|3-3-3-3-------------------------|

e|--------Part Two--------------------|
B|------------------------------------|
G|----------3-3-3-3--8-8-8-8--5-5-5-5-|
D|-5-5-5-5--3-3-3-3--8-8-8-8--5-5-5-5-|
A|-5-5-5-5--1-1-1-1--6-6-6-6--3-3-3-3-|
E|-3-3-3-3----------------------------|

e|----Part Two Continued------------|
B|----------------------------------|
G|-7-7-7-7-7-7-7-7—-5-5-5-5-5-5-5-5-|
D|-7-7-7-7-7-7-7-7—-5-5-5-5-5-5-5-5—| x1
A|-5-5-5-5-5-5-5-5—-3-3-3-3-3-3-3-3—|
E|----------------------------------|

Outro:
e|-----Part One------|
B|-------------------|
G|-3—3-3-3-3-3-3-3---|
D|-3-3-3-3-3-3-3-3---| x8
A|-1-1-1-1-1-1-1-1---|
E|-------------------|
PM,,,,,,,,,,,,,,,,,,,

e|---------Part Two--------------|
B|-------------------------------|
G|--3-3-3-3-3-3--33------33------|
D|--3-3-3-3-3-3--33DRUMS-33DRUMS-| x1
A|--1-1-1-1-1-1-—11------11------|
E|-------------------------------|
PM,,,,,,,,,,,,,

e|------Part Three--|
B|------------------|
G|--3-3-3-3-3-3-3-3—|
D|--3-3-3-3-3-3-3-3—| x3
A|--1-1-1-1-1-1-1-1—|
E|------------------

e|----Part Four-----|
B|------------------|
G|—-33------33------|
D|--33DRUMS-33DRUMS-| x1
A|—-11------11------|
E|------------------|

Part 3  x3

e|----Part Four-----|
B|------------------|
G|—-55------55------|
D|--55DRUMS-55DRUMS-|
A|—-33------33------| x1
E|------------------|

Part 3  x3
Part 4  x1
Part 3  x3
Part 4  x1

Finish
e|-----|
B|-----|
G|—-55-|
D|--55-|
A|—-33-| x1
E|-----|

In addition to Chords / Tabs Less Than Jake - Bad Scene And A Basement Show (Second Version), we offer an excerpt from a random book.A real scientist, isn't he? And he has a corresponding nose - huge, ugly.

LiveInternet