AllChordsTabs.com

Marty Friedman - Ripped (First Version) Chords and Tabs


Artists:
Chords and Tabs » M » Marty Friedman - Ripped (First Version)

Marty Friedman - Ripped (First Version)

Marty Friedman - Ripped (First Version) Chords / Tabs

Marty Friedman - Ripped First Version: chords and tabs for the song. Watch chords and tablatures for all songs of the singer (group) Marty Friedman. Other chords and tabs for the "Ripped" can find at the bottom of the page.

RIPPED
As recorded by Marty Friedman
(From the Album MUSIC FOR SPEEDING)

Music by Marty Friedman


Left and right channel of the original song feature different guitar tracks.
This transcription features a mix of both in places but is mainly focused on the higher
guitar.
Listen to song one channel at a time to hear the various parts.

Gtr I (E A D G B E) - 'Untitled'

4/4
E  E E  E E  E E  E E  E E  E E  E
||-------------------------------------|
||o------------------------------------|
||-------9h12p9---------9h12p9---------|
||--9h12--------12-9h12--------12-9h12-|
||o------------------------------------|
||-------------------------------------|


E  E E  E E  E E  E  E  E  E  E  E  E  E  E  E  E  E
|------------------------------10----------10----------|
|---------------------10h11-12----12-11h12----12-11p10-|
|-9h12p9---------9h12----------------------------------|
|--------12-9h12---------------------------------------|
|------------------------------------------------------|
|------------------------------------------------------|


E  E  E  E  E  E  E  E  E E     E   E   E
|-------------------------------|-------------||
|----10h11-10----10-------------|------------o||
|-12----------12----12p11----9--|-------------||
|-------------------------12----|-------------||
|-------------------------------|--5---5---4-o||
|-------------------------------|--7---6---5--||


~
E  E  E  E    E  E  E  E  E  E E
|-------------------------------------|
|-------------------------------------|
|-12-12-12-12--/16-14-12-11-12-11-9---|
|-------------------------------------|
|-------------------------------------|
|-------------------------------------|


E  E  E  E  E     E  E  E  E  E  E  E  E
|-----------------------------------------------|
|-------------13b15-13-12-13-13p12----12--------|
|-12-12-12-12----------------------14----14b16r=|
|-----------------------------------------------|
|-----------------------------------------------|
|-----------------------------------------------|


~    PM         ~~       ~~~
E  E  E  E  E  E  E  E  E E    E E  E  E  E   E    E
|------------------------------|------------------------|
|-------13-12------------------|------------------------|
|-14-14-------14-12-12-11-12-9-|----9-12-12S15--11--/16-|
|------------------------------|-10---------------------|
|------------------------------|------------------------|
|------------------------------|------------------------|


~~~~~~~~~~       ~~~~~
E   E   E    E   E  E    E  E  E   E E  E
|-------------------------------------------|
|-------------------------------------------|
|-9--11--12--/16--14-14---12-11-12----------|
|-----------------------------------10-9-10-|
|-------------------------------------------|
|-------------------------------------------|


~~~~~
E  E   E      E  E  E   E E  E
|-----------------------------------|
|-------------------12-12--10-9-10--|
|------9--11b13--11-----------------|
|--11-------------------------------|
|-----------------------------------|
|-----------------------------------|


~~
E  E  E  E  E  E  E   E  E  E  E  E  E  E  E  E  E  E  E  E  E  E
|---------------------------------------12-14-16-14p12-------------------|----|
|-/15-14-15--------------------13h14h16----------------16-14-12----------|----|
|------------------------13h14----------------------------------14-13----|----|
|-----------------14-13--------------------------------------------------|----|
|-----------16-15--------------------------------------------------------|----|
|------------------------------------------------------------------------|----|


4/4
E  E E  E E  E E  E E  E E  E E  E
||-------------------------------------|
||o------------------------------------|
||-------9h12p9---------9h12p9---------|
||--9h12--------12-9h12--------12-9h12-|
||o------------------------------------|
||-------------------------------------|


E  E E  E E  E E  E  E  E  E  E  E  E  E  E  E  E  E
|------------------------------10----------10----------|
|---------------------10h11-12----12-11h12----12-11p10-|
|-9h12p9---------9h12----------------------------------|
|--------12-9h12---------------------------------------|
|------------------------------------------------------|
|------------------------------------------------------|


E  E  E  E  E  E  E  E  E E     E   E   E
|-------------------------------|-------------||-||---------------||-|
|----10h11-10----10-------------|------------o||-||o-------------o||-|
|-12----------12----12p11----9--|-------------||-||---------------||-|
|-------------------------12----|-------------||-||---------------||-|
|-------------------------------|--5---5---4-o||-||o-------------o||-|
|-------------------------------|--7---6---5--||-||---------------||-|


PM  ~~ PM  ~~~~~
E   E  E   E  E
|--------------------|
|--------------------|
|--------------------|
|-2--/5--2--/5--2----|
|-2--/5--2--/5--2----|
|--------------------|


E E E E E E E E E E E E E E E E E E E E E E E E E E E E E E E E     E
|-3-0-3-0-----2-0-----1-0-------------------------------------------------|
|---------3-0-----3-0-----3-2-1-0---1-0-----------------------------------|
|---------------------------------3-----2-1-0---2-0-----------------------|
|---------------------------------------------3-----3-2-1-0---------------|
|-----------------------------------------------------------2-0-----------|
|---------------------------------------------------------------3b3.5-0---|


~~~~~~~    ~     ~       ~     ~      ~~     ~~      ~~
E    E   E E   E E   E E E   E E   E  E   E  E    E  E   E  E
|----------------------------------------------------------------|
|---------------------------------------------------10S12--12S15-|
|-----------------------4S7-7---7S9---9S12--12S14----------------|
|------/5---5S7---7S9--------------------------------------------|
|-/7-------------------------------------------------------------|
|----------------------------------------------------------------|


E  E     E  E  E  E  E     E  E  E  E  E     E  E  E  E  E     E  E  E  E
|----------12-15-------------12-15p12----------12-15p12----------12-15p12----|
|-15-15b17-------15p12-15b17----------12-15b17----------12-15b17----------12-|
|----------------------------------------------------------------------------|
|----------------------------------------------------------------------------|
|----------------------------------------------------------------------------|
|----------------------------------------------------------------------------|


E     E  E  E  E  E     E  E  E  E  E  E  E
|-------12-15p12----------12-15p12-15p12-15p12-|
|-15b17----------12-15b17----------------------|
|----------------------------------------------|
|----------------------------------------------|
|----------------------------------------------|
|----------------------------------------------|


E     E  E  E  E  E  E  E  E  E  E  E  E  E  E  E     E  E  E  E  E  E  E
|-------12-15p12-------12-15p12-------15p12-------------12-------------------|
|-15b17----------15p12----------15p12-------15p12----------15p12-15p12-------|
|-------------------------------------------------14b16----------------14p12-|
|----------------------------------------------------------------------------|
|----------------------------------------------------------------------------|
|----------------------------------------------------------------------------|


E  E  E  E        E        E
|------------20b21r==(20)b21---20b21r=|
|------19-----------------------------|
|--/18----18--------------------------|
|-------------------------------------|
|-------------------------------------|
|-------------------------------------|


E       E  E  E  E  E  E  E  E  E  E  E  E  E  E  E  E  E  E  E  E  E  E  E  E  E  E  E E  E  E  E  E
|-20b22r==16h19----16S15-18----14-17----14-16----14----------------------------------14----------------14-|
|---------------18----------17-------16-------17----16-14----17-14----------17p14-------14h17p14-17h18----|
|---------------------------------------------------------16-------17p16p14-------17----------------------|
|---------------------------------------------------------------------------------------------------------|
|---------------------------------------------------------------------------------------------------------|
|---------------------------------------------------------------------------------------------------------|



~~~~~
E  E  E  E  E  E  E       E  E  E  E  E  E  E       E  E  E  E  E  E  E      E  E  E  E E  E  E
|----------14---------------15-17---------------------16-18--------------------17-------------17-20b23---|
|-17p14-------17p14-17b20---------18-15-------18b21---------19-16-------19b21-----20-17----17------------|
|-------17------------------------------17-15---------------------18-16-----------------19---------------|
|--------------------------------------------------------------------------------------------------------|
|--------------------------------------------------------------------------------------------------------|
|--------------------------------------------------------------------------------------------------------|


~
E E E E E E E E E  E   E  E E  E E   E      E      E     E  E  E   E      E      E
|-/9-6-----------------------------------------------------11-11-11--13b14--12b13--11b12--|
|------9-6------------------------9-9--12b14r=12b14r=14b16--------------------------------|
|----------8-6---------------9-9----------------------------------------------------------|
|--------------8-6----7--11---------------------------------------------------------------|
|------------------9----------------------------------------------------------------------|
|-----------------------------------------------------------------------------------------|


4/4
E  E E  E E  E E  E E  E E  E E  E
|------------------------------------|
|------------------------------------|
|------9h12p9---------9h12p9---------|
|-9h12--------12-9h12--------12-9h12-|
|------------------------------------|
|------------------------------------|


E  E E  E E  E E  E  E  E  E  E  E  E  E  E  E  E  E
|------------------------------10----------10-----------|
|---------------------10h11-12----12-11h12----12-11p10--|
|-9h12p9---------9h12-----------------------------------|
|--------12-9h12----------------------------------------|
|-------------------------------------------------------|
|-------------------------------------------------------|


E  E  E  E  E  E  E  E  E E     E   E   E
|-------------------------------|------------|----|
|----10h11-10----10-------------|------------|----|
|-12----------12----12p11----9--|------------|----|
|-------------------------12----|------------|----|
|-------------------------------|--5---5---4-|----|
|-------------------------------|--7---6---5-|----|


E       E  E   E           E
|------------------|------------|----|
|------------------|------------|----|
|------------------|------------|----|
|-3-------9--8---4-|---------5--|----|
|-3-------9--8---4-|---------5--|----|
|-1-------7--6---2-|---------3--|----|


~~~         ~~~~~
E   E    E  E       E E  E E E E
|----------------------------------------|
|----------------------------------------|
|------11b13r9---------------------------|
|-/11----------12b14---11p9--------------|
|----------------------------9-7h9-9b11--|
|----------------------------------------|


~       ~~
E   E   E  E  E E  E  E  E E    E      E  E E
|------------------------------|-----------------|
|-----------------9-10-12-10-9-|---------9-10-9--|
|-9------11--9-11--------------|-11b13-----------|
|----11------------------------|-----------------|
|------------------------------|-----------------|
|------------------------------|-----------------|


~                           ~~~~
E  E E E     E E E E E E       E E E E E E
|-------------|-------------------------------|
|-------------|-----------------------6-6-----|
|-12p11p9S8---|---3-7---3-6b6.5-----7-----5---|
|-------------|-5----------------/8---------7-|
|-------------|-------6-----------------------|
|-------------|-------------------------------|


~~~
E E E E E E       E E E E E E
|-----------------------6-5-------|---|
|---------------------6-----6-----|---|
|---3-7---3-6b6.5--/7---------6b7-|---|
|-5-------------------------------|---|
|-------6-------------------------|---|
|---------------------------------|---|


E E E E E E       E E E E E E
|---------------------6-6-8-5-----|
|------------------/6---------6b8-|
|---3-7---3-6b6.5-----------------|
|-5-------------------------------|
|-------6-------------------------|
|---------------------------------|


E E E E E E         E  E  E  E    E  E  E  E  E       E E
|-----------------------13-10---------14-11-----------------|
|-------------------/11-------11--/12-------12-12b14----9-9-|
|---3-7---3-6b6.5---------------------------------------9-9-|
|-5---------------------------------------------------------|
|-------6---------------------------------------------------|
|-----------------------------------------------------------|


E E  E  E  E  E E  E E  E E  E E     E E     E E E E  E E  E E  E E  E  E E  E E  E
|-------------------------------------------------------------------------------------|
|-9-9--9-11--9-11---------------------------------------------------9h10----9h10p9----|
|-9-9--9-11--9-11-9h11p9---------------------------------------9h11------11--------11-|
|------------------------11p9-----------------------------9h11------------------------|
|-----------------------------11-9b10r===9b10r=====7-9S10-----------------------------|
|-------------------------------------12-------7h9------------------------------------|


E  E E E E  E E E E  E E  E E E E E  E E E E  E E  E E  E E  E E E E E E    E E E E
|----------------------------------------------------------------------------------------|
|----------------------------------------------------------------------------------------|
|-13p11p9S8-9----8-9p8----8--------------------------------------------------------------|
|-------------11-------11---11p9p8h9p8-------------9----9h11p9---------------------------|
|--------------------------------------11-9-8h9-11---11--------11S9-7-9-7-9b11-7---------|
|--------------------------------------------------------------------------------9-7-9--|


E    E E  E    E E  E    E
|-------9-9-------9-9-------9-|
|-------9-9-------9-9-------9-|
|-11b12-----11b12-----11b12---|
|-----------------------------|
|-----------------------------|
|-----------------------------|


E    E  E    E  E    E  E    E      E
||--------9-------9-------9-------9--||-----------|
||o-------9-------9-------9-------9-o||-12--------|
||--11b12---11b12---11b12---11b12----||-11b13r====|
||-----------------------------------||-----------|
||o---------------------------------o||-----------|
||-----------------------------------||-----------|


~~
E E  E E  E E  E E  E E  E E  E E  E E  E     E       E E  E  E E  E  E  E  E      E
|--------------------------------------------------------------------------------------------|
|-12p9-------------------------------------------------------------9-10-11-12-12b14r=12b14---|
|------11-9------11-9------11-9-11p9------11b13--9----/11-9-11-12---------------------------|
|-----------11p9------11-9-----------11p9----------------------------------------------------|
|--------------------------------------------------------------------------------------------|
|--------------------------------------------------------------------------------------------|


~~~~
E  E  E      E   E    E  E  E  E  E  E  E  E  E  E  E  E  E  E  E  E  E  E  E  E  E  E
E  E  E  E  E  E  E
|-9-11-12pb14r11-[12]--------14-19-16p14-16p14----------------------------------14----------------------------|
|----------------------14h16-------------------17-19-17p14-17p14----14-19p14-------18-17-14-17-14-------------|
|----------------------------------------------------------------17----------17-------------------16-15-14-13-|
|-------------------------------------------------------------------------------------------------------------|
|-------------------------------------------------------------------------------------------------------------|
|-------------------------------------------------------------------------------------------------------------|


~~
E  E  E   E E  E E  E E E  E E E E E E E  E E
|----------|-9-7------11p7-9h11-9p7h9p7-9p7------|
|----------|-----10-9-----------------------10-9-|
|----------|-------------------------------------|
|-17-16-14-|-------------------------------------|
|----------|-------------------------------------|
|----------|-------------------------------------|


E E  E E E E E  E E E E E E E
|-9p7------9p7-9h11-9p7h9-7-9p7-|
|-----10-9----------------------|
|-------------------------------|
|-------------------------------|
|-------------------------------|
|-------------------------------|


~
E E  E       E  E E   E
|-----------|--------------|
|-10-9-10--|--/7--9-7--/9-|
|-----------|--------------|
|-----------|--------------|
|-----------|--------------|
|-----------|--------------|


~
E E  E E  E E E  E E E E E E E  E E      E        E  E  E E
||--9-7------11-7-9h11p9p7-9p7-9p7-------||------------------------|
||o-----10-9-----------------------10-9-o||-10b12----10h12p10-9----|
||---------------------------------------||------------------------|
||---------------------------------------||------------------------|
||o-------------------------------------o||------------------------|
||---------------------------------------||------------------------|


E  E  E  E  E  E  E  E  E  E  E  E  E  E  E  E E E  E E E E  E E E E E E  E E  E E E
|-----14-19p14----14S11-14p11----14p11----11-7-11p7-----------------7-9p8p7----------------|
|-/16----------16-------------12-------12------------9-------------9---------10-7-----------|
|------------------------------------------------------10-7---7-10----------------10-9-8b9--|
|-----------------------------------------------------------9-------------------------------|
|-------------------------------------------------------------------------------------------|
|-------------------------------------------------------------------------------------------|


E  E  E  E    E  E  E  E  E  E E E
|-|------------|--------------------------------------------|
|-|------------|--------------------------------------------|
|-|------------|-12-12-12-12--/16-14-12-11-12-11-9-9b11r====|
|-|------------|--------------------------------------------|
|-|------------|--------------------------------------------|
|-|------------|--------------------------------------------|


E  E  E  E  E     E  E  E  E  E  E  E  E
|-----------------------------------------------|
|-------------13b15-13-12-13-13p12----12--------|
|-12-12-12-12----------------------14----14b16r=|
|-----------------------------------------------|
|-----------------------------------------------|
|-----------------------------------------------|


PM         ~~       ~~~
E  E  E  E  E  E  E  E  E E    E E  E  E  E   E    E
|------------------------------|------------------------|
|-------13-12------------------|------------------------|
|-14-14-------14-12-12-11-12-9-|----9-12-12S15--11--/16-|
|------------------------------|-10---------------------|
|------------------------------|------------------------|
|------------------------------|------------------------|


~~~~~~~~~~       ~~~~~
E   E   E    E   E  E    E  E  E   E E  E
|-------------------------------------------|
|-------------------------------------------|
|-9--11--12--/16--14-14---12-11-12----------|
|-----------------------------------10-9-10-|
|-------------------------------------------|
|-------------------------------------------|


~~~~~~~~~~~~
E  E   E      E  E  E   E E  E
|-----------------------------------|
|-------------------12-12--10-9-10--|
|------9--11b13--11-----------------|
|--11-------------------------------|
|-----------------------------------|
|-----------------------------------|


~~
E  E  E  E  E  E  E   E  E  E  E  E  E  E  E  E  E  E  E  E  E  E
|---------------------------------------12-14-16-14p12-------------------|----|
|-/15-14-15--------------------13h14h16----------------16-14-12----------|----|
|------------------------13h14----------------------------------14-13----|----|
|-----------------14-13--------------------------------------------------|----|
|-----------16-15--------------------------------------------------------|----|
|------------------------------------------------------------------------|----|


4/4
E  E E  E E  E E  E E  E E  E E  E
||-------------------------------------|
||o------------------------------------|
||-------9h12p9---------9h12p9---------|
||--9h12--------12-9h12--------12-9h12-|
||o------------------------------------|
||-------------------------------------|


E  E E  E E  E E  E  E  E  E  E  E  E  E  E  E  E  E
|------------------------------10----------10----------|
|---------------------10h11-12----12-11h12----12-11p10-|
|-9h12p9---------9h12----------------------------------|
|--------12-9h12---------------------------------------|
|------------------------------------------------------|
|------------------------------------------------------|


E  E  E  E  E  E  E  E  E E     E   E   E          E   E   E       E E
|-------------------------------|-------------||-||--------------||----------|
|----10h11-10----10-------------|------------o||-||o------------o||----------|
|-12----------12----12p11----9--|-------------||-||--------------||---9-9---|
|-------------------------12----|-------------||-||--------------||---9-9---|
|-------------------------------|--5---5---4-o||-||o--5---5---4-o||---7-7---|
|-------------------------------|--7---6---5--||-||---7---6---5--||----------|


E  E
|-----------|
|-----------|
|-12-12----|
|-12-12----|
|-10-10----|
|-----------|


Duration Legend
---------------
W - whole; H - half; Q - quarter; E - 8th; S - 16th; T - 32nd; X - 64th; a - acciaccatura
+ - note tied to previous; . - note dotted; .. - note double dotted
Uncapitalized letters represent notes that are staccato (1/2 duration)
Irregular groupings are notated above the duration line
Duration letters will always appear directly above the note/fret number it represents the
duration for.  Duration letters with no fret number below them represent rests.  Multi-
bar rests are notated in the form Wxn, where n is the number of bars to rest for.  Low
melody durations appear below the staff

Tablature Legend
----------------
h   - hammer-on
p   - pull-off
b   - bend
pb  - pre-bend
r   - bend release (if no number after the r, then release immediately)
/  - slide into or out of (from/to "nowhere")
s   - legato slide
S   - shift slide
- natural harmonic
[n]  - artificial harmonic
n(n) - tapped harmonic
~   - vibrato
tr  - trill
T   - tap
TP  - trem. picking
PM  - palm muting

/  - tremolo bar dip; n = amount to dip

  - tremolo bar down
n/  - tremolo bar up
/n  - tremolo bar inverted dip
=   - hold bend; also acts as connecting device for hammers/pulls
<>  - volume swell (louder/softer)
x   - on rhythm slash represents muted slash
o   - on rhythm slash represents single note slash

Misc Legend
-----------
|  - bar
||  - double bar
||o - repeat start
o|| - repeat end
*|  - double bar (ending)
:  - bar (freetime)
$  - Segno
&  - Coda
Tempo markers -  = BPM(8/16=s8/s16), where s8 = swing 8ths, s16 = swing 16ths


***************************************************************************************
***************************************************************************************

In addition to Chords / Tabs Marty Friedman - Ripped (First Version), we offer an excerpt from a random book.Do not lie ... And we have a calmness with our foreheads: we dance in stances, we catch the moment to attack.

LiveInternet