AllChordsTabs.com

Jimi Hendrix - Hey Baby (Second Version) Chords and Tabs


Artists:
Chords and Tabs » J » Jimi Hendrix - Hey Baby (Second Version)

Jimi Hendrix - Hey Baby (Second Version)

Jimi Hendrix - Hey Baby (Second Version) Chords / Tabs

Jimi Hendrix - Hey Baby Second Version: chords and tabs for the song. Watch chords and tablatures for all songs of the singer (group) Jimi Hendrix. Other chords and tabs for the "Hey Baby" can find at the bottom of the page.

E----------------------------------0--------------------------------
b------0----------------------1----1----1------------------------(3)
g------0----------------------0----0----0-------------------------4-
d------2----------------------2----2----2--------------0-1-2-(3)/-5-
a------2----------------0-1-2-3----3----3----0-1-2-3-4--------------
e--0----------0-1-2-3-4---------------------------------------------


h p
E------------------------------5------------5----------------0------
b------3-------3^5^3-----------3------------5----------0-----0------
g------4-------4-----4---------0------------0----------1-----1------
d----5---5---5--------5-----4---------------0----------2--2--2------
a-------------------------5--------5-----4------4------2-----2------
e--3-------3---------------------------5--------5------0-----0------



E-------------------------------------------------------------------
b-------------------------------------------------------------------
g-------------------------------------------------------------------
d--3-2-1-0---------------------3-------------------1-0---3-1-0------
a----------3-2-1-0------3--0-1----1-0-----1-0----------3-------3-1--
e-------------------0-1---------------3-1-----3-1-------------------



Strum
E-----------------------6-------4-----------------------------------
b--8----8--8--8--8--8---6-------6----6--6--6--6--6---3--------------
g--8----8--8--8--8--8---7-------6----6--6--6--6--6---4--------------
d--8----8--8--8--8--8---8-------6----6--6--6--6--6---5--------------
a--6----6--6--6--6--6---8-------4----4--4--4--4--4---5--------------
e-----------------------6----------------------------3--------------



sl       h  p
E------4------------5------------6----------------------------------
b------4------------5------------6----------------------------------
g--5---5--------6---6--------7---7----------------------------------
d--6---6--------7---7--------8---8-------------8--8^10^8------------
a--6---6--------7---7--------8---8-------8/10------------8----------
e--4---4---4----5---5---5----6---6---6------------------------------


Strum
E-----------------------6-------4-----------------------------------
b--8----8--8--8--8--8---6-------6----6--6--6--6--6---3--------------
g--8----8--8--8--8--8---7-------6----6--6--6--6--6---4--------------
d--8----8--8--8--8--8---8-------6----6--6--6--6--6---5--------------
a--6----6--6--6--6--6---8-------4----4--4--4--4--4---5--------------
e-----------------------6----------------------------3--------------



E------4------------5------------6----------------------------------
b------4------------5------------6------------8---------------------
g--5---5--------6---6--------7---7--------8---9---------------------
d--6---6--------7---7--------8---8--------9---10--------------------
a--6---6--------7---7--------8---8--------9---10--------------------
e--4---4---4----5---5---5----6---6---6----7---8---------------------



sl	      sl			  sl
E----------------------------------------6--------------------------
b------10-------------------------6------6--------7-----------------
g--10--10-------------------------7------7----7---7-----------------
d--10--10----------------------8--8------8----7---7-----------------
a--8---8----8-10-8/7-8-7-------8--------------5---5--5-7-5/4-5-4----
e------------------------10-8-/6------6--------------------------7-5



sl		h p			 sl
E----------------------------------------------------------------0--
b------3-------3-----------------4---------------------0------0-----
g------4-------4^5^4---------4---4---------------------1------------
d--5---5-------5------5------4---4---------------------2---2--------
a--5--------------------5----2---2--2-4-2/1-2-1-----2--2---2--------
e-/3-------3------------------------------------4-2-0--0---0--------

In addition to Chords / Tabs Jimi Hendrix - Hey Baby (Second Version), we offer an excerpt from a random book.The song turned out to be shrill and very sincere, as Alex had originally planned.

LiveInternet