AllChordsTabs.com

Kings Of Leon - Four Kicks (Second Version) Chords and Tabs


Artists:
Chords and Tabs » K » Kings Of Leon - Four Kicks (Second Version)

Kings Of Leon - Four Kicks (Second Version)

Kings Of Leon - Four Kicks (Second Version) Chords / Tabs

Kings Of Leon - Four Kicks Second Version: chords and tabs for the song. Watch chords and tablatures for all songs of the singer (group) Kings Of Leon. Other chords and tabs for the "Four Kicks" can find at the bottom of the page.

-------------------------------------------------------------------------
Album:A-Ha Shake Heartbreak
-------------------------------------------------------------------------

INTRO:
Guitar 1:(Caleb)

E    G    A    G         E    G    A    G
|--0-0--3-3--5-5--3-3---|---0-0--3-3--5-5--3-3----------------|
|--0-0--3-3--5-5--3-3---|---0-0--3-3--5-5--3-3----------------|
|--1-1--4-4--6-6--4-4---|---1-1--4-4--6-6--4-4----------------|
|--2-2--5-5--7-7--5-5---|---2-2--5-5--7-7--5-5----------------|
|--2-2--5-5--7-7--5-5---|---2-2--5-5--7-7--5-5----------------|
|--0-0--3-3--5-5--3-3---|---0-0--3-3--5-5--3-3----------------|

E    G    A    G        D  D  D  D  D  D  D  D
|--0-0--3-3--5-5--3-3---|---10-10-10-10-10-10-10-10-----------|
|--0-0--3-3--5-5--3-3---|---10-10-10-10-10-10-10-10-----------|
|--1-1--4-4--6-6--4-4---|---11-11-11-11-11-11-11-11-----------|
|--2-2--5-5--7-7--5-5---|---12-12-12-12-12-12-12-12-----------|
|--2-2--5-5--7-7--5-5---|---12-12-12-12-12-12-12-12-----------|
|--0-0--3-3--5-5--3-3---|---10-10-10-10-10-10-10-10-----------|

E    G    A    G         E    G    A    G
|-----------------------|-------------------------------------|
|-----------------------|-------------------------------------|
|-----------------------|-------------------------------------|
|--5-5--5-5--7-7--5-5---|---5-5--5-5--7-7--5-5----------------|
|--5-5--5-5--7-7--5-5---|---5-5--5-5--7-7--5-5----------------|
|--0-0--3-3--5-5--3-3---|---0-0--3-3--5-5--3-3----------------|

E    G    A    G        D  D  D  D  D  D  D  D
|-----------------------|-------------------------------------|
|-----------------------|-------------------------------------|
|-----------------------|-------------------------------------|
|--5-5--5-5--7-7--5-5---|---12-12-12-12-12-12-12-12-----------|
|--5-5--5-5--7-7--5-5---|---12-12-12-12-12-12-12-12-----------|
|--0-0--3-3--5-5--3-3---|---10-10-10-10-10-10-10-10-----------|


Guitar 2:(Matthew)

E    G    A    G       E    G    A    G
|-----------------------|-------------------------------------|
|-----------------------|-------------------------------------|
|-----------------------|-------------------------------------|
|-----------------------|-------------------------------------|
|-----------------------|-------------------------------------|
|-----------------------|-------------------------------------|

E    G    A    G        D  D  D  D  D  D  D  D
|-----------------------|---10-10-10-10-10-10-10-10-----------|
|-----------------------|---10-10-10-10-10-10-10-10-----------|
|-----------------------|-------------------------------------|
|-----------------------|-------------------------------------|
|-----------------------|-------------------------------------|
|-----------------------|-------------------------------------|

E    G    A    G         E    G    A    G
|--0-0--3-3--5-5--3-3---|---0-0--3-3--5-5--3-3----------------|
|--0-0--3-3--5-5--3-3---|---0-0--3-3--5-5--3-3----------------|
|--1-1--4-4--6-6--4-4---|---1-1--4-4--6-6--4-4----------------|
|--2-2--5-5--7-7--5-5---|---2-2--5-5--7-7--5-5----------------|
|--2-2--5-5--7-7--5-5---|---2-2--5-5--7-7--5-5----------------|
|--0-0--3-3--5-5--3-3---|---0-0--3-3--5-5--3-3----------------|

E    G    A    G    D  D  D  D  D  D  D  D
|--0-0--3-3--5-5--3-3---10-10-10-10-10-10-10-10--------------|
|--0-0--3-3--5-5--3-3---10-10-10-10-10-10-10-10--------------|
|--1-1--4-4--6-6--4-4---11-11-11-11-11-11-11-11--------------|
|--2-2--5-5--7-7--5-5---12-12-12-12-12-12-12-12--------------|
|--2-2--5-5--7-7--5-5---12-12-12-12-12-12-12-12--------------|
|--0-0--3-3--5-5--3-3---10-10-10-10-10-10-10-10--------------|


VERSE:
Guitar 1:(Caleb)

E  (Lyrics......)      E    G    A    G       E    G    A    G
|--------------------------------------------------------------------|
|--------------------------------------------------------------------|
|--1-----------------------------------------------------------------|
|--2---------------------5-5--5-5--7-7--5-5-----5-5--5-5--7-7--5-5---|
|--2---------------------5-5--5-5--7-7--5-5-----5-5--5-5--7-7--5-5---|
|--0---------------------0-0--3-3--5-5--3-3-----0-0--3-3--5-5--3-3---|

D  (Lyrics......)      E    G    A    G       E    G    A    G
|----------------------------------------------------------------------|
|----------------------------------------------------------------------|
|----------------------------------------------------------------------|
|--12---------------------5-5--5-5--7-7--5-5-----5-5--5-5--7-7--5-5----|
|--12---------------------5-5--5-5--7-7--5-5-----5-5--5-5--7-7--5-5----|
|--10---------------------0-0--3-3--5-5--3-3-----0-0--3-3--5-5--3-3----|

E  (Lyrics......)      E    G    A    G       E    G    A    G
|--------------------------------------------------------------------|
|--------------------------------------------------------------------|
|--1-----------------------------------------------------------------|
|--2---------------------5-5--5-5--7-7--5-5-----5-5--5-5--7-7--5-5---|
|--2---------------------5-5--5-5--7-7--5-5-----5-5--5-5--7-7--5-5---|
|--0---------------------0-0--3-3--5-5--3-3-----0-0--3-3--5-5--3-3---|

D  (Lyrics......)      E    G    A    G       E    G    A    G
|---------------------------------------------------------------------|
|---------------------------------------------------------------------|
|---------------------------------------------------------------------|
|--12---------------------5-5--5-5--7-7--5-5-----5-5--5-5--7-7--5-5---|
|--12---------------------5-5--5-5--7-7--5-5-----5-5--5-5--7-7--5-5---|
|--10---------------------0-0--3-3--5-5--3-3-----0-0--3-3--5-5--3-3---|


Guitar 2:(Matthew)

E  (Lyrics.....)      E    G    A    G       E    G    A    G
|---0---------------------0-0--3-3--5-5--3-3-----0-0--3-3--5-5--3-3---|
|---0---------------------0-0--3-3--5-5--3-3-----0-0--3-3--5-5--3-3---|
|---1---------------------1-1--4-4--6-6--4-4-----1-1--4-4--6-6--4-4---|
|-------------------------2-2--5-5--7-7--5-5-----2-2--5-5--7-7--5-5---|
|-------------------------2-2--5-5--7-7--5-5-----2-2--5-5--7-7--5-5---|
|-------------------------0-0--3-3--5-5--3-3-----0-0--3-3--5-5--3-3---|

D  (Lyrics.....)       E    G    A    G       E    G    A    G
|---5---------------------0-0--3-3--5-5--3-3-----0-0--3-3--5-5--3-3---|
|---7---------------------0-0--3-3--5-5--3-3-----0-0--3-3--5-5--3-3---|
|---7---------------------1-1--4-4--6-6--4-4-----1-1--4-4--6-6--4-4---|
|-------------------------2-2--5-5--7-7--5-5-----2-2--5-5--7-7--5-5---|
|-------------------------2-2--5-5--7-7--5-5-----2-2--5-5--7-7--5-5---|
|-------------------------0-0--3-3--5-5--3-3-----0-0--3-3--5-5--3-3---|


E  (Lyrucs.....)       E    G    A    G       E    G    A    G
|-------------------------0-0--3-3--5-5--3-3-----0-0--3-3--5-5--3-3---|
|---9---------------------0-0--3-3--5-5--3-3-----0-0--3-3--5-5--3-3---|
|---9---------------------1-1--4-4--6-6--4-4-----1-1--4-4--6-6--4-4---|
|---9---------------------2-2--5-5--7-7--5-5-----2-2--5-5--7-7--5-5---|
|-------------------------2-2--5-5--7-7--5-5-----2-2--5-5--7-7--5-5---|
|-------------------------0-0--3-3--5-5--3-3-----0-0--3-3--5-5--3-3---|

D  (Lyrics.....)       E    G    A    G       E    G    A    G
|---10--------------------0-0--3-3--5-5--3-3-----0-0--3-3--5-5--3-3---|
|---10--------------------0-0--3-3--5-5--3-3-----0-0--3-3--5-5--3-3---|
|---11--------------------1-1--4-4--6-6--4-4-----1-1--4-4--6-6--4-4---|
|-------------------------2-2--5-5--7-7--5-5-----2-2--5-5--7-7--5-5---|
|-------------------------2-2--5-5--7-7--5-5-----2-2--5-5--7-7--5-5---|
|-------------------------0-0--3-3--5-5--3-3-----0-0--3-3--5-5--3-3---|

CHORUS:(BOTH GUITARS)

F                    Bb
(Lyrics.....)         (Lyrics.....)
|--1--------------------6--------------------|
|--1--------------------6--------------------|
|--2--------------------7--------------------|
|--3--------------------8--------------------|
|--3--------------------8--------------------|
|--1--------------------6--------------------|

F                    Bb
(Lyrics.....)         (Lyrics.....)
|--1--------------------6--------------------|
|--1--------------------6--------------------|
|--2--------------------7--------------------|
|--3--------------------8--------------------|
|--3--------------------8--------------------|
|--1--------------------6--------------------|

F                    Bb
(Lyrics.....)         (Lyrics.....)
|--1--------------------6--------------------|
|--1--------------------6--------------------|
|--2--------------------7--------------------|
|--3--------------------8--------------------|
|--3--------------------8--------------------|
|--1--------------------6--------------------|

F                    Bb
(Lyrics.....)         (Lyrics.....)
|--1--------------------6--------------------|
|--1--------------------6--------------------|
|--2--------------------7--------------------|
|--3--------------------8--------------------|
|--3--------------------8--------------------|
|--1--------------------6--------------------|


-----------------------------------------------------------------------------
The rest of the song is just about the same. During the solo, play the      chords of
intro. A-HA SHAKE HEARTBREAK IS COMING FOR US.you better hide.
------------------------------------------------------------------------------|
------------------------------------------------------------------------------|
Album:A-Ha Shake Heartbreak
-------------------------------------------------------------------------

INTRO:
Guitar 1:(Caleb)

E    G    A    G         E    G    A    G
|--0-0--3-3--5-5--3-3---|---0-0--3-3--5-5--3-3----------------|
|--0-0--3-3--5-5--3-3---|---0-0--3-3--5-5--3-3----------------|
|--1-1--4-4--6-6--4-4---|---1-1--4-4--6-6--4-4----------------|
|--2-2--5-5--7-7--5-5---|---2-2--5-5--7-7--5-5----------------|
|--2-2--5-5--7-7--5-5---|---2-2--5-5--7-7--5-5----------------|
|--0-0--3-3--5-5--3-3---|---0-0--3-3--5-5--3-3----------------|

E    G    A    G        D  D  D  D  D  D  D  D
|--0-0--3-3--5-5--3-3---|---10-10-10-10-10-10-10-10-----------|
|--0-0--3-3--5-5--3-3---|---10-10-10-10-10-10-10-10-----------|
|--1-1--4-4--6-6--4-4---|---11-11-11-11-11-11-11-11-----------|
|--2-2--5-5--7-7--5-5---|---12-12-12-12-12-12-12-12-----------|
|--2-2--5-5--7-7--5-5---|---12-12-12-12-12-12-12-12-----------|
|--0-0--3-3--5-5--3-3---|---10-10-10-10-10-10-10-10-----------|

E    G    A    G         E    G    A    G
|-----------------------|-------------------------------------|
|-----------------------|-------------------------------------|
|-----------------------|-------------------------------------|
|--5-5--5-5--7-7--5-5---|---5-5--5-5--7-7--5-5----------------|
|--5-5--5-5--7-7--5-5---|---5-5--5-5--7-7--5-5----------------|
|--0-0--3-3--5-5--3-3---|---0-0--3-3--5-5--3-3----------------|

E    G    A    G        D  D  D  D  D  D  D  D
|-----------------------|-------------------------------------|
|-----------------------|-------------------------------------|
|-----------------------|-------------------------------------|
|--5-5--5-5--7-7--5-5---|---12-12-12-12-12-12-12-12-----------|
|--5-5--5-5--7-7--5-5---|---12-12-12-12-12-12-12-12-----------|
|--0-0--3-3--5-5--3-3---|---10-10-10-10-10-10-10-10-----------|


Guitar 2:(Matthew)

E    G    A    G       E    G    A    G
|-----------------------|-------------------------------------|
|-----------------------|-------------------------------------|
|-----------------------|-------------------------------------|
|-----------------------|-------------------------------------|
|-----------------------|-------------------------------------|
|-----------------------|-------------------------------------|

E    G    A    G        D  D  D  D  D  D  D  D
|-----------------------|---10-10-10-10-10-10-10-10-----------|
|-----------------------|---10-10-10-10-10-10-10-10-----------|
|-----------------------|-------------------------------------|
|-----------------------|-------------------------------------|
|-----------------------|-------------------------------------|
|-----------------------|-------------------------------------|

E    G    A    G         E    G    A    G
|--0-0--3-3--5-5--3-3---|---0-0--3-3--5-5--3-3----------------|
|--0-0--3-3--5-5--3-3---|---0-0--3-3--5-5--3-3----------------|
|--1-1--4-4--6-6--4-4---|---1-1--4-4--6-6--4-4----------------|
|--2-2--5-5--7-7--5-5---|---2-2--5-5--7-7--5-5----------------|
|--2-2--5-5--7-7--5-5---|---2-2--5-5--7-7--5-5----------------|
|--0-0--3-3--5-5--3-3---|---0-0--3-3--5-5--3-3----------------|

E    G    A    G    D  D  D  D  D  D  D  D
|--0-0--3-3--5-5--3-3---10-10-10-10-10-10-10-10--------------|
|--0-0--3-3--5-5--3-3---10-10-10-10-10-10-10-10--------------|
|--1-1--4-4--6-6--4-4---11-11-11-11-11-11-11-11--------------|
|--2-2--5-5--7-7--5-5---12-12-12-12-12-12-12-12--------------|
|--2-2--5-5--7-7--5-5---12-12-12-12-12-12-12-12--------------|
|--0-0--3-3--5-5--3-3---10-10-10-10-10-10-10-10--------------|


VERSE:
Guitar 1:(Caleb)

E  (Lyrics......)      E    G    A    G       E    G    A    G
|--------------------------------------------------------------------|
|--------------------------------------------------------------------|
|--1-----------------------------------------------------------------|
|--2---------------------5-5--5-5--7-7--5-5-----5-5--5-5--7-7--5-5---|
|--2---------------------5-5--5-5--7-7--5-5-----5-5--5-5--7-7--5-5---|
|--0---------------------0-0--3-3--5-5--3-3-----0-0--3-3--5-5--3-3---|

D  (Lyrics......)      E    G    A    G       E    G    A    G
|----------------------------------------------------------------------|
|----------------------------------------------------------------------|
|----------------------------------------------------------------------|
|--12---------------------5-5--5-5--7-7--5-5-----5-5--5-5--7-7--5-5----|
|--12---------------------5-5--5-5--7-7--5-5-----5-5--5-5--7-7--5-5----|
|--10---------------------0-0--3-3--5-5--3-3-----0-0--3-3--5-5--3-3----|

E  (Lyrics......)      E    G    A    G       E    G    A    G
|--------------------------------------------------------------------|
|--------------------------------------------------------------------|
|--1-----------------------------------------------------------------|
|--2---------------------5-5--5-5--7-7--5-5-----5-5--5-5--7-7--5-5---|
|--2---------------------5-5--5-5--7-7--5-5-----5-5--5-5--7-7--5-5---|
|--0---------------------0-0--3-3--5-5--3-3-----0-0--3-3--5-5--3-3---|

D  (Lyrics......)      E    G    A    G       E    G    A    G
|---------------------------------------------------------------------|
|---------------------------------------------------------------------|
|---------------------------------------------------------------------|
|--12---------------------5-5--5-5--7-7--5-5-----5-5--5-5--7-7--5-5---|
|--12---------------------5-5--5-5--7-7--5-5-----5-5--5-5--7-7--5-5---|
|--10---------------------0-0--3-3--5-5--3-3-----0-0--3-3--5-5--3-3---|


Guitar 2:(Matthew)

E  (Lyrics.....)      E    G    A    G       E    G    A    G
|---0---------------------0-0--3-3--5-5--3-3-----0-0--3-3--5-5--3-3---|
|---0---------------------0-0--3-3--5-5--3-3-----0-0--3-3--5-5--3-3---|
|---1---------------------1-1--4-4--6-6--4-4-----1-1--4-4--6-6--4-4---|
|-------------------------2-2--5-5--7-7--5-5-----2-2--5-5--7-7--5-5---|
|-------------------------2-2--5-5--7-7--5-5-----2-2--5-5--7-7--5-5---|
|-------------------------0-0--3-3--5-5--3-3-----0-0--3-3--5-5--3-3---|

D  (Lyrics.....)       E    G    A    G       E    G    A    G
|---5---------------------0-0--3-3--5-5--3-3-----0-0--3-3--5-5--3-3---|
|---7---------------------0-0--3-3--5-5--3-3-----0-0--3-3--5-5--3-3---|
|---7---------------------1-1--4-4--6-6--4-4-----1-1--4-4--6-6--4-4---|
|-------------------------2-2--5-5--7-7--5-5-----2-2--5-5--7-7--5-5---|
|-------------------------2-2--5-5--7-7--5-5-----2-2--5-5--7-7--5-5---|
|-------------------------0-0--3-3--5-5--3-3-----0-0--3-3--5-5--3-3---|


E  (Lyrucs.....)       E    G    A    G       E    G    A    G
|-------------------------0-0--3-3--5-5--3-3-----0-0--3-3--5-5--3-3---|
|---9---------------------0-0--3-3--5-5--3-3-----0-0--3-3--5-5--3-3---|
|---9---------------------1-1--4-4--6-6--4-4-----1-1--4-4--6-6--4-4---|
|---9---------------------2-2--5-5--7-7--5-5-----2-2--5-5--7-7--5-5---|
|-------------------------2-2--5-5--7-7--5-5-----2-2--5-5--7-7--5-5---|
|-------------------------0-0--3-3--5-5--3-3-----0-0--3-3--5-5--3-3---|

D  (Lyrics.....)       E    G    A    G       E    G    A    G
|---10--------------------0-0--3-3--5-5--3-3-----0-0--3-3--5-5--3-3---|
|---10--------------------0-0--3-3--5-5--3-3-----0-0--3-3--5-5--3-3---|
|---11--------------------1-1--4-4--6-6--4-4-----1-1--4-4--6-6--4-4---|
|-------------------------2-2--5-5--7-7--5-5-----2-2--5-5--7-7--5-5---|
|-------------------------2-2--5-5--7-7--5-5-----2-2--5-5--7-7--5-5---|
|-------------------------0-0--3-3--5-5--3-3-----0-0--3-3--5-5--3-3---|

CHORUS:(BOTH GUITARS)

F                    Bb
(Lyrics.....)         (Lyrics.....)
|--1--------------------6--------------------|
|--1--------------------6--------------------|
|--2--------------------7--------------------|
|--3--------------------8--------------------|
|--3--------------------8--------------------|
|--1--------------------6--------------------|

F                    Bb
(Lyrics.....)         (Lyrics.....)
|--1--------------------6--------------------|
|--1--------------------6--------------------|
|--2--------------------7--------------------|
|--3--------------------8--------------------|
|--3--------------------8--------------------|
|--1--------------------6--------------------|

F                    Bb
(Lyrics.....)         (Lyrics.....)
|--1--------------------6--------------------|
|--1--------------------6--------------------|
|--2--------------------7--------------------|
|--3--------------------8--------------------|
|--3--------------------8--------------------|
|--1--------------------6--------------------|

F                    Bb
(Lyrics.....)         (Lyrics.....)
|--1--------------------6--------------------|
|--1--------------------6--------------------|
|--2--------------------7--------------------|
|--3--------------------8--------------------|
|--3--------------------8--------------------|
|--1--------------------6--------------------|


-----------------------------------------------------------------------------
The rest of the song is just about the same. During the solo, play the      chords of
intro. A-HA SHAKE HEARTBREAK IS COMING FOR US.you better hide.
------------------------------------------------------------------------------|
------------------------------------------------------------------------------|
Album:A-Ha Shake Heartbreak
-------------------------------------------------------------------------

INTRO:
Guitar 1:(Caleb)

E    G    A    G         E    G    A    G
|--0-0--3-3--5-5--3-3---|---0-0--3-3--5-5--3-3----------------|
|--0-0--3-3--5-5--3-3---|---0-0--3-3--5-5--3-3----------------|
|--1-1--4-4--6-6--4-4---|---1-1--4-4--6-6--4-4----------------|
|--2-2--5-5--7-7--5-5---|---2-2--5-5--7-7--5-5----------------|
|--2-2--5-5--7-7--5-5---|---2-2--5-5--7-7--5-5----------------|
|--0-0--3-3--5-5--3-3---|---0-0--3-3--5-5--3-3----------------|

E    G    A    G        D  D  D  D  D  D  D  D
|--0-0--3-3--5-5--3-3---|---10-10-10-10-10-10-10-10-----------|
|--0-0--3-3--5-5--3-3---|---10-10-10-10-10-10-10-10-----------|
|--1-1--4-4--6-6--4-4---|---11-11-11-11-11-11-11-11-----------|
|--2-2--5-5--7-7--5-5---|---12-12-12-12-12-12-12-12-----------|
|--2-2--5-5--7-7--5-5---|---12-12-12-12-12-12-12-12-----------|
|--0-0--3-3--5-5--3-3---|---10-10-10-10-10-10-10-10-----------|

E    G    A    G         E    G    A    G
|-----------------------|-------------------------------------|
|-----------------------|-------------------------------------|
|-----------------------|-------------------------------------|
|--5-5--5-5--7-7--5-5---|---5-5--5-5--7-7--5-5----------------|
|--5-5--5-5--7-7--5-5---|---5-5--5-5--7-7--5-5----------------|
|--0-0--3-3--5-5--3-3---|---0-0--3-3--5-5--3-3----------------|

E    G    A    G        D  D  D  D  D  D  D  D
|-----------------------|-------------------------------------|
|-----------------------|-------------------------------------|
|-----------------------|-------------------------------------|
|--5-5--5-5--7-7--5-5---|---12-12-12-12-12-12-12-12-----------|
|--5-5--5-5--7-7--5-5---|---12-12-12-12-12-12-12-12-----------|
|--0-0--3-3--5-5--3-3---|---10-10-10-10-10-10-10-10-----------|


Guitar 2:(Matthew)

E    G    A    G       E    G    A    G
|-----------------------|-------------------------------------|
|-----------------------|-------------------------------------|
|-----------------------|-------------------------------------|
|-----------------------|-------------------------------------|
|-----------------------|-------------------------------------|
|-----------------------|-------------------------------------|

E    G    A    G        D  D  D  D  D  D  D  D
|-----------------------|---10-10-10-10-10-10-10-10-----------|
|-----------------------|---10-10-10-10-10-10-10-10-----------|
|-----------------------|-------------------------------------|
|-----------------------|-------------------------------------|
|-----------------------|-------------------------------------|
|-----------------------|-------------------------------------|

E    G    A    G         E    G    A    G
|--0-0--3-3--5-5--3-3---|---0-0--3-3--5-5--3-3----------------|
|--0-0--3-3--5-5--3-3---|---0-0--3-3--5-5--3-3----------------|
|--1-1--4-4--6-6--4-4---|---1-1--4-4--6-6--4-4----------------|
|--2-2--5-5--7-7--5-5---|---2-2--5-5--7-7--5-5----------------|
|--2-2--5-5--7-7--5-5---|---2-2--5-5--7-7--5-5----------------|
|--0-0--3-3--5-5--3-3---|---0-0--3-3--5-5--3-3----------------|

E    G    A    G    D  D  D  D  D  D  D  D
|--0-0--3-3--5-5--3-3---10-10-10-10-10-10-10-10--------------|
|--0-0--3-3--5-5--3-3---10-10-10-10-10-10-10-10--------------|
|--1-1--4-4--6-6--4-4---11-11-11-11-11-11-11-11--------------|
|--2-2--5-5--7-7--5-5---12-12-12-12-12-12-12-12--------------|
|--2-2--5-5--7-7--5-5---12-12-12-12-12-12-12-12--------------|
|--0-0--3-3--5-5--3-3---10-10-10-10-10-10-10-10--------------|


VERSE:
Guitar 1:(Caleb)

E  (Lyrics......)      E    G    A    G       E    G    A    G
|--------------------------------------------------------------------|
|--------------------------------------------------------------------|
|--1-----------------------------------------------------------------|
|--2---------------------5-5--5-5--7-7--5-5-----5-5--5-5--7-7--5-5---|
|--2---------------------5-5--5-5--7-7--5-5-----5-5--5-5--7-7--5-5---|
|--0---------------------0-0--3-3--5-5--3-3-----0-0--3-3--5-5--3-3---|

D  (Lyrics......)      E    G    A    G       E    G    A    G
|----------------------------------------------------------------------|
|----------------------------------------------------------------------|
|----------------------------------------------------------------------|
|--12---------------------5-5--5-5--7-7--5-5-----5-5--5-5--7-7--5-5----|
|--12---------------------5-5--5-5--7-7--5-5-----5-5--5-5--7-7--5-5----|
|--10---------------------0-0--3-3--5-5--3-3-----0-0--3-3--5-5--3-3----|

E  (Lyrics......)      E    G    A    G       E    G    A    G
|--------------------------------------------------------------------|
|--------------------------------------------------------------------|
|--1-----------------------------------------------------------------|
|--2---------------------5-5--5-5--7-7--5-5-----5-5--5-5--7-7--5-5---|
|--2---------------------5-5--5-5--7-7--5-5-----5-5--5-5--7-7--5-5---|
|--0---------------------0-0--3-3--5-5--3-3-----0-0--3-3--5-5--3-3---|

D  (Lyrics......)      E    G    A    G       E    G    A    G
|---------------------------------------------------------------------|
|---------------------------------------------------------------------|
|---------------------------------------------------------------------|
|--12---------------------5-5--5-5--7-7--5-5-----5-5--5-5--7-7--5-5---|
|--12---------------------5-5--5-5--7-7--5-5-----5-5--5-5--7-7--5-5---|
|--10---------------------0-0--3-3--5-5--3-3-----0-0--3-3--5-5--3-3---|


Guitar 2:(Matthew)

E  (Lyrics.....)      E    G    A    G       E    G    A    G
|---0---------------------0-0--3-3--5-5--3-3-----0-0--3-3--5-5--3-3---|
|---0---------------------0-0--3-3--5-5--3-3-----0-0--3-3--5-5--3-3---|
|---1---------------------1-1--4-4--6-6--4-4-----1-1--4-4--6-6--4-4---|
|-------------------------2-2--5-5--7-7--5-5-----2-2--5-5--7-7--5-5---|
|-------------------------2-2--5-5--7-7--5-5-----2-2--5-5--7-7--5-5---|
|-------------------------0-0--3-3--5-5--3-3-----0-0--3-3--5-5--3-3---|

D  (Lyrics.....)       E    G    A    G       E    G    A    G
|---5---------------------0-0--3-3--5-5--3-3-----0-0--3-3--5-5--3-3---|
|---7---------------------0-0--3-3--5-5--3-3-----0-0--3-3--5-5--3-3---|
|---7---------------------1-1--4-4--6-6--4-4-----1-1--4-4--6-6--4-4---|
|-------------------------2-2--5-5--7-7--5-5-----2-2--5-5--7-7--5-5---|
|-------------------------2-2--5-5--7-7--5-5-----2-2--5-5--7-7--5-5---|
|-------------------------0-0--3-3--5-5--3-3-----0-0--3-3--5-5--3-3---|


E  (Lyrucs.....)       E    G    A    G       E    G    A    G
|-------------------------0-0--3-3--5-5--3-3-----0-0--3-3--5-5--3-3---|
|---9---------------------0-0--3-3--5-5--3-3-----0-0--3-3--5-5--3-3---|
|---9---------------------1-1--4-4--6-6--4-4-----1-1--4-4--6-6--4-4---|
|---9---------------------2-2--5-5--7-7--5-5-----2-2--5-5--7-7--5-5---|
|-------------------------2-2--5-5--7-7--5-5-----2-2--5-5--7-7--5-5---|
|-------------------------0-0--3-3--5-5--3-3-----0-0--3-3--5-5--3-3---|

D  (Lyrics.....)       E    G    A    G       E    G    A    G
|---10--------------------0-0--3-3--5-5--3-3-----0-0--3-3--5-5--3-3---|
|---10--------------------0-0--3-3--5-5--3-3-----0-0--3-3--5-5--3-3---|
|---11--------------------1-1--4-4--6-6--4-4-----1-1--4-4--6-6--4-4---|
|-------------------------2-2--5-5--7-7--5-5-----2-2--5-5--7-7--5-5---|
|-------------------------2-2--5-5--7-7--5-5-----2-2--5-5--7-7--5-5---|
|-------------------------0-0--3-3--5-5--3-3-----0-0--3-3--5-5--3-3---|

CHORUS:(BOTH GUITARS)

F                    Bb
(Lyrics.....)         (Lyrics.....)
|--1--------------------6--------------------|
|--1--------------------6--------------------|
|--2--------------------7--------------------|
|--3--------------------8--------------------|
|--3--------------------8--------------------|
|--1--------------------6--------------------|

F                    Bb
(Lyrics.....)         (Lyrics.....)
|--1--------------------6--------------------|
|--1--------------------6--------------------|
|--2--------------------7--------------------|
|--3--------------------8--------------------|
|--3--------------------8--------------------|
|--1--------------------6--------------------|

F                    Bb
(Lyrics.....)         (Lyrics.....)
|--1--------------------6--------------------|
|--1--------------------6--------------------|
|--2--------------------7--------------------|
|--3--------------------8--------------------|
|--3--------------------8--------------------|
|--1--------------------6--------------------|

F                    Bb
(Lyrics.....)         (Lyrics.....)
|--1--------------------6--------------------|
|--1--------------------6--------------------|
|--2--------------------7--------------------|
|--3--------------------8--------------------|
|--3--------------------8--------------------|
|--1--------------------6--------------------|


-----------------------------------------------------------------------------
The rest of the song is just about the same. During the solo, play the      chords of
intro. A-HA SHAKE HEARTBREAK IS COMING FOR US.you better hide.
-----------------------------------------------------------------------------

In addition to Chords / Tabs Kings Of Leon - Four Kicks (Second Version), we offer an excerpt from a random book.The funeral service for the body of Mozart took place on December 6 at three in the afternoon in the chapel at the church of St.

LiveInternet