AllChordsTabs.com

Joan Jett - Hanky Panky (First Version) Chords and Tabs


Artists:
Chords and Tabs » J » Joan Jett - Hanky Panky (First Version)

Joan Jett - Hanky Panky (First Version)

Joan Jett - Hanky Panky (First Version) Chords / Tabs

Joan Jett - Hanky Panky First Version: chords and tabs for the song. Watch chords and tablatures for all songs of the singer (group) Joan Jett. Other chords and tabs for the "Hanky Panky " can find at the bottom of the page.

[Chorus]

N.C.   G5       F5       G5       F5       C5       A#5      C5       A#5
e|--------|--------|--------|--------|--------|--------|--------|--------|--------|
B|--------|--------|--------|--------|--------|--------|--------|--------|--------|
G|--------|--------|--------|--------|--------|5-5-5-5-|3-3-3-3-|5-5-5-5-|3-3-3-3-|
D|--0-3-0-|5-5-5-5-|3-3-3-3-|5-5-5-5-|3-3-3-3-|5-5-5-5-|3-3-3-3-|5-5-5-5-|3-3-3-3-|
A|--------|5-5-5-5-|3-3-3-3-|5-5-5-5-|3-3-3-3-|3-3-3-3-|1-1-1-1-|3-3-3-3-|1-1-1-1-|
E|--------|3-3-3-3-|1-1-1-1-|3-3-3-3-|1-1-1-1-|--------|--------|--------|--------|

G5       F5       G5       F5       D5       C5       G5       D5       D5       G5
e|--------|--------|--------|--------|--------|--------|--------|--------|--------|--------|
B|--------|--------|--------|--------|--------|--------|--------|--------|--------|--------|
G|--------|--------|--------|--------|7~------|5~------|--------|7-7-7-7-|7-7-7-7-|--------|
D|5-5-5-5-|3-3-3-3-|5-5-5-5-|3-3-3-3-|7~------|5~------|5~------|7-7-7-7-|7-7-7-7-|5~------| (x2)
A|5-5-5-5-|3-3-3-3-|5-5-5-5-|3-3-3-3-|5~------|3~------|5~------|5-5-5-5-|5-5-5-5-|5~------|
E|3-3-3-3-|1-1-1-1-|3-3-3-3-|1-1-1-1-|--------|--------|3~------|--------|--------|3~------|


[Verse]

N.C.   G5         N.C.   C5         N.C.   G5         N.C.   D5       C5       G5
e|--------|--------|--------|--------|--------|--------|--------|--------|--------|--------|
B|--------|--------|--------|--------|--------|--------|--------|--------|--------|--------|
G|--------|--------|--------|5~------|--------|--------|--------|7~------|5~------|--------|
D|--0-3-0-|5~------|--0-3-0-|5~------|--0-3-0-|5~------|--0-3-0-|7~------|5~------|5~------|
A|--------|5~------|--------|3~------|--------|5~------|--------|5~------|3~------|5~------|
E|--------|3~------|--------|--------|--------|3~------|--------|--------|--------|3~------|

D5       D5       G5
e|--------|--------|--------|
B|--------|--------|--------|
G|7-7-7-7-|7-7-7-7-|--------|
D|7-7-7-7-|7-7-7-7-|5~------|
A|5-5-5-5-|5-5-5-5-|5~------|
E|--------|--------|3~------|


[Chorus]

N.C.   G5       F5       G5       F5       C5       A#5      C5       A#5
e|--------|--------|--------|--------|--------|--------|--------|--------|--------|
B|--------|--------|--------|--------|--------|--------|--------|--------|--------|
G|--------|--------|--------|--------|--------|5-5-5-5-|3-3-3-3-|5-5-5-5-|3-3-3-3-|
D|--0-3-0-|5-5-5-5-|3-3-3-3-|5-5-5-5-|3-3-3-3-|5-5-5-5-|3-3-3-3-|5-5-5-5-|3-3-3-3-|
A|--------|5-5-5-5-|3-3-3-3-|5-5-5-5-|3-3-3-3-|3-3-3-3-|1-1-1-1-|3-3-3-3-|1-1-1-1-|
E|--------|3-3-3-3-|1-1-1-1-|3-3-3-3-|1-1-1-1-|--------|--------|--------|--------|

G5       F5       G5       F5       D5       C5       G5       D5       D5
e|--------|--------|--------|--------|--------|--------|--------|--------|--------|
B|--------|--------|--------|--------|--------|--------|--------|--------|--------|
G|--------|--------|--------|--------|7~------|5~------|--------|7-7-7-7-|7-7-7-7-|
D|5-5-5-5-|3-3-3-3-|5-5-5-5-|3-3-3-3-|7~------|5~------|5~------|7-7-7-7-|7-7-7-7-|
A|5-5-5-5-|3-3-3-3-|5-5-5-5-|3-3-3-3-|5~------|3~------|5~------|5-5-5-5-|5-5-5-5-|
E|3-3-3-3-|1-1-1-1-|3-3-3-3-|1-1-1-1-|--------|--------|3~------|--------|--------|


[Guitar Solo]

G5       F5       G5       F5                 C5       A#5      C5       A#5
e|--------|--------|--------|--------|        e|--------|--------|--------|--------|
B|--------|--------|--------|--------|        B|--------|--------|--------|--------|
G|--------|--------|--------|--------|        G|5-5-5-5-|3-3-3-3-|5-5-5-5-|3-3-3-3-|
D|5-5-5-5-|3-3-3-3-|5-5-5-5-|3-3-3-3-|  (x2)  D|5-5-5-5-|3-3-3-3-|5-5-5-5-|3-3-3-3-|
A|5-5-5-5-|3-3-3-3-|5-5-5-5-|3-3-3-3-|        A|3-3-3-3-|1-1-1-1-|3-3-3-3-|1-1-1-1-|
E|3-3-3-3-|1-1-1-1-|3-3-3-3-|1-1-1-1-|        E|--------|--------|--------|--------|

G5       F5       G5       F5       D5       C5       G5       D5       D5
e|--------|--------|--------|--------|--------|--------|--------|--------|--------|
B|--------|--------|--------|--------|--------|--------|--------|--------|--------|
G|--------|--------|--------|--------|7~------|5~------|--------|7-7-7-7-|7-7-7-7-|
D|5-5-5-5-|3-3-3-3-|5-5-5-5-|3-3-3-3-|7~------|5~------|5~------|7-7-7-7-|7-7-7-7-|
A|5-5-5-5-|3-3-3-3-|5-5-5-5-|3-3-3-3-|5~------|3~------|5~------|5-5-5-5-|5-5-5-5-|
E|3-3-3-3-|1-1-1-1-|3-3-3-3-|1-1-1-1-|--------|--------|3~------|--------|--------|


[Verse]

G5         N.C.   G5         N.C.   C5         N.C.   G5         N.C.   D5       C5       G5
e|--------|--------|--------|--------|--------|--------|--------|--------|--------|--------|--------|
B|--------|--------|--------|--------|--------|--------|--------|--------|--------|--------|--------|
G|--------|--------|--------|--------|5~------|--------|--------|--------|7~------|5~------|--------|
D|5-------|--0-3-0-|5~------|--0-3-0-|5~------|--0-3-0-|5~------|--0-3-0-|7~------|5~------|5~------|
A|5-------|--------|5~------|--------|3~------|--------|5~------|--------|5~------|3~------|5~------|
E|3-------|--------|3~------|--------|--------|--------|3~------|--------|--------|--------|3~------|

D5       D5       G5
e|--------|--------|--------|
B|--------|--------|--------|
G|7-7-7-7-|7-7-7-7-|--------|
D|7-7-7-7-|7-7-7-7-|5~------|
A|5-5-5-5-|5-5-5-5-|5~------|
E|--------|--------|3~------|


[Chorus]

N.C.   G5       F5       G5       F5       C5       A#5      C5       A#5
e|--------|--------|--------|--------|--------|--------|--------|--------|--------|
B|--------|--------|--------|--------|--------|--------|--------|--------|--------|
G|--------|--------|--------|--------|--------|5-5-5-5-|3-3-3-3-|5-5-5-5-|3-3-3-3-|
D|--0-3-0-|5-5-5-5-|3-3-3-3-|5-5-5-5-|3-3-3-3-|5-5-5-5-|3-3-3-3-|5-5-5-5-|3-3-3-3-|
A|--------|5-5-5-5-|3-3-3-3-|5-5-5-5-|3-3-3-3-|3-3-3-3-|1-1-1-1-|3-3-3-3-|1-1-1-1-|
E|--------|3-3-3-3-|1-1-1-1-|3-3-3-3-|1-1-1-1-|--------|--------|--------|--------|

G5       F5       G5       F5       D5       C5       G5       D5       D5
e|--------|--------|--------|--------|--------|--------|--------|--------|--------|
B|--------|--------|--------|--------|--------|--------|--------|--------|--------|
G|--------|--------|--------|--------|7~------|5~------|--------|7-7-7-7-|7-7-7-7-|
D|5-5-5-5-|3-3-3-3-|5-5-5-5-|3-3-3-3-|7~------|5~------|5~------|7-7-7-7-|7-7-7-7-|
A|5-5-5-5-|3-3-3-3-|5-5-5-5-|3-3-3-3-|5~------|3~------|5~------|5-5-5-5-|5-5-5-5-|
E|3-3-3-3-|1-1-1-1-|3-3-3-3-|1-1-1-1-|--------|--------|3~------|--------|--------|


[Outro]

G5       F5       G5       F5                 C5       A#5      C5       A#5
e|--------|--------|--------|--------|        e|--------|--------|--------|--------|
B|--------|--------|--------|--------|        B|--------|--------|--------|--------|
G|--------|--------|--------|--------|        G|5-5-5-5-|3-3-3-3-|5-5-5-5-|3-3-3-3-|
D|5-5-5-5-|3-3-3-3-|5-5-5-5-|3-3-3-3-|  (x2)  D|5-5-5-5-|3-3-3-3-|5-5-5-5-|3-3-3-3-|
A|5-5-5-5-|3-3-3-3-|5-5-5-5-|3-3-3-3-|        A|3-3-3-3-|1-1-1-1-|3-3-3-3-|1-1-1-1-|
E|3-3-3-3-|1-1-1-1-|3-3-3-3-|1-1-1-1-|        E|--------|--------|--------|--------|

G5       F5       G5       F5       D5       C5       G5       D5       D5
e|--------|--------|--------|--------|--------|--------|--------|--------|--------|
B|--------|--------|--------|--------|--------|--------|--------|--------|--------|
G|--------|--------|--------|--------|7~------|5~------|--------|7-7-7-7-|7-7-7-7-|
D|5-5-5-5-|3-3-3-3-|5-5-5-5-|3-3-3-3-|7~------|5~------|5~------|7-7-7-7-|7-7-7-7-|
A|5-5-5-5-|3-3-3-3-|5-5-5-5-|3-3-3-3-|5~------|3~------|5~------|5-5-5-5-|5-5-5-5-|
E|3-3-3-3-|1-1-1-1-|3-3-3-3-|1-1-1-1-|--------|--------|3~------|--------|--------|

G5       F5       G5       F5                 C5       A#5      C5       A#5
e|--------|--------|--------|--------|        e|--------|--------|--------|--------|
B|--------|--------|--------|--------|        B|--------|--------|--------|--------|
G|--------|--------|--------|--------|        G|5-5-5-5-|3-3-3-3-|5-5-5-5-|3-3-3-3-|
D|5-5-5-5-|3-3-3-3-|5-5-5-5-|3-3-3-3-|  (x2)  D|5-5-5-5-|3-3-3-3-|5-5-5-5-|3-3-3-3-|
A|5-5-5-5-|3-3-3-3-|5-5-5-5-|3-3-3-3-|        A|3-3-3-3-|1-1-1-1-|3-3-3-3-|1-1-1-1-|
E|3-3-3-3-|1-1-1-1-|3-3-3-3-|1-1-1-1-|        E|--------|--------|--------|--------|

G5       F5       G5       F5       D5       C5       G5       D5       D5
e|--------|--------|--------|--------|--------|--------|--------|--------|--------|
B|--------|--------|--------|--------|--------|--------|--------|--------|--------|
G|--------|--------|--------|--------|7~------|5~------|--------|7-7-7-7-|7-7-7-7-|
D|5-5-5-5-|3-3-3-3-|5-5-5-5-|3-3-3-3-|7~------|5~------|5~------|7-7-7-7-|7-7-7-7-|  (Fade Out)
A|5-5-5-5-|3-3-3-3-|5-5-5-5-|3-3-3-3-|5~------|3~------|5~------|5-5-5-5-|5-5-5-5-|
E|3-3-3-3-|1-1-1-1-|3-3-3-3-|1-1-1-1-|--------|--------|3~------|--------|--------|

In addition to Chords / Tabs Joan Jett - Hanky Panky (First Version), we offer an excerpt from a random book.The guys did everything silently and slowly, they still had 40 minutes before the start of the performance.

LiveInternet