AllChordsTabs.com

Jimmy Eat World - Elecle (First Version) Chords and Tabs


Artists:
Chords and Tabs » J » Jimmy Eat World - Elecle (First Version)

Jimmy Eat World - Elecle (First Version)

Jimmy Eat World - Elecle (First Version) Chords / Tabs

Jimmy Eat World - Elecle First Version: chords and tabs for the song. Watch chords and tablatures for all songs of the singer (group) Jimmy Eat World. Other chords and tabs for the "Elecle " can find at the bottom of the page.

Tuning: Standard (EADGBE)

Intro

Guitar 1:
|-------------------------------------|
|-------------------------------------|
|-------------------------------------|
|-2-2-222--6-6-666----------2-22-2222-|
|-0-0-000--4-4-444-2-2-222--0-00-0000-|
|------------------0-0-000------------|X3

VERSE

Guitar 1:
|-------------------------------------|
|-------------------------------------|
|-------------------------------------|
|-2-2-222--6-6-666----------2-22-2222-|
|-0-0-000--4-4-444-2-2-222--0-00-0000-|
|------------------0-0-000------------|x2


Guitar 2:
|----------------------------------------------------------------------------|
|----------------------------------------------------------------------------|
|--4-4-4-4-4-4-4-4-4-4-4-4-4-4-4-4-4-4-4-4-4-4-4-4-4-4-4-4-4-4-4-4-4---------|
|--2-2-2-2-2-2-2-2-2-2-2-2-2-2-2-4-4-4-2-2-2-2-2-2-2-2-2-2-2-2-2-2-2---------|
|--.-.-.-.-.-.-.-.-.-.-.-.-.-.-.-.--.--.--.--.-.-.-.-.-.-.-.-.-.-.-.-.-.-.---|
|----------------------------------------------------------------------------|x2


CHORUS

Guitar 1:
|--------------------------------------------------------------------------------------------|
|-12-12-12-12-12-12-12-12-12-12/14-14-14-12-12-12-12-12-12-12-12-12-12-5-5-5-5-5-5-5-5-5-5-|
|-x--x--x--x--x--x--x--x--x--x/-x--x--x--x--x--x--x--x--x--x--x--x--x--x-x-x-x-x-x-x-x-x-x-|
|-9--9--9--9--9--9--9--9--9--9/-11-11-11-9--9--9--9--9--9--9--9--9--9--2-2-2-2-2-2-2-2-2-2-|
|--------------------------------------------------------------------------------------------|
|--------------------------------------------------------------------------------------------|x2

Guitar 2:
|------------------------------------------------------------------|
|------------------------------------------------------------------|
|------------------------------------------------------------------|
|-2-2-2-2-2-2-2-2-6-6-6-6-6-6-6-6-----------------2-2-2-2-2-2-2-2--|
|-0-0-0-0-0-0-0-0-4-4-4-4-4-4-4-4-2-2-2-2-2-2-2-2-0-0-0-0-0-0-0-0--|
|---------------------------------0-0-0-0-0-0-0-0------------------|x2
................................................................

VERSE 2

Guitar 1
|-------------------------------------|
|-------------------------------------|
|-------------------------------------|
|-2-2-222--6-6-666----------2-22-2222-|
|-0-0-000--4-4-444-2-2-222--0-00-0000-|
|------------------0-0-000------------|X2

Guitar 2
|-------------------------------------|
|-------------------------------------|
|-------------------------------------|
|-2-2-222--6-6-666----------2-22-2222-|
|-0-0-000--4-4-444-2-2-222--0-00-0000-|
|------------------0-0-000------------|X2

Guitar 3:
|--------------------------------------|
|-5-5-5-5-5-5-5-5-5-5-5-5-5-5-5-5-5-5--|
|-4-4-4-4-4-4-4-4-4-4-4-4-4-4-4-4-4-4--|
|-2-2-2-2-2-2-2-2-2-2-2-2-2-2-2-2-2-2--|
|--------------------------------------|
|--------------------------------------|x2

CHORUS


Guitar 1:
|--------------------------------------------------------------------------------------------|
|-12-12-12-12-12-12-12-12-12-12/14-14-14-12-12-12-12-12-12-12-12-12-12-5-5-5-5-5-5-5-5-5-5-|
|-x--x--x--x--x--x--x--x--x--x/-x--x--x--x--x--x--x--x--x--x--x--x--x--x-x-x-x-x-x-x-x-x-x-|
|-9--9--9--9--9--9--9--9--9--9/-11-11-11-9--9--9--9--9--9--9--9--9--9--2-2-2-2-2-2-2-2-2-2-|
|--------------------------------------------------------------------------------------------|
|--------------------------------------------------------------------------------------------|x4

Guitar 2:
|------------------------------------------------------------------|
|------------------------------------------------------------------|
|------------------------------------------------------------------|
|-2-2-2-2-2-2-2-2-6-6-6-6-6-6-6-6-----------------2-2-2-2-2-2-2-2--|
|-0-0-0-0-0-0-0-0-4-4-4-4-4-4-4-4-2-2-2-2-2-2-2-2-0-0-0-0-0-0-0-0--|
|---------------------------------0-0-0-0-0-0-0-0------------------|x4
................................................................


Guitar 3: (After the second time)
|--------------------------------------|
|-5-5-5-5-5-5-5-5-5-5-5-5-5-5-5-5-5-5--|
|-4-4-4-4-4-4-4-4-4-4-4-4-4-4-4-4-4-4--|
|-2-2-2-2-2-2-2-2-2-2-2-2-2-2-2-2-2-2--|
|--------------------------------------|
|--------------------------------------|x2




BREAKDOWN

Both Guitars
|--------------0---------------0-------------|
|-----------------------------------------0--|
|--------------------------------------------|
|--2--2-----2-------2--2----2-------2--2-----|
|--2--2-----2-------2--2----2-------2--2-----|
|--0--0-----0-------0--0----0-------0--0-----|x2



|-------------0--------------0---------0--|
|-----------------------------------------|
|-----------------------------------------|
|--6--6----6------6--6----6------6--6-----|
|--4--4----4------4--4----4------4--4-----|
|--4--4----4------4--4----4------4--4-----|x2

|-------------0--------------0-------------|
|--------------------------------------4---|
|--4--4----4------4--4----4------4--4------|
|--4--4----4------4--4----4------4--4------|
|--2--2----2------2--2----2------2--2------|
|------------------------------------------|x2


|-------------0--------------2---------4-------|--|---------|(Hold after the second time)
|----------------------------------------------|--|---------|
|--2--2----2------2--2----2------2--2----------|--|---------|
|--2--2----2------2--2----2------2--2----------|--|--(2)----|
|--0--0----0------0--0----0------0--0----------|--|--(2)----|
|----------------------------------------------|x2|--(0)----|



POST-BREAKDOWN

Guitar 2
|------------------------------------------------------------------|--X--X--X--X--|
|------------------------------------------------------------------|--X--X--X--X--|
|------------------------------------------------------------------|--X--X--X--X--|
|-2-2-2-2-2-2-2-2-6-6-6-6-6-6-6-6-----------------2-2-2-2-2-2-2-2--|--X--X--X--X--|
|-0-0-0-0-0-0-0-0-4-4-4-4-4-4-4-4-2-2-2-2-2-2-2-2-0-0-0-0-0-0-0-0--|--X--X--X--X--|
|---------------------------------0-0-0-0-0-0-0-0------------------|--X--X--X--X--|x4
................................................................


LAST CHORUS

Guitar 1:
|--------------------------------------------------------------------------------------------|
|-12-12-12-12-12-12-12-12-12-12/14-14-14-12-12-12-12-12-12-12-12-12-12-5-5-5-5-5-5-5-5-5-5-|
|-x--x--x--x--x--x--x--x--x--x/-x--x--x--x--x--x--x--x--x--x--x--x--x--x-x-x-x-x-x-x-x-x-x-|
|-9--9--9--9--9--9--9--9--9--9/-11-11-11-9--9--9--9--9--9--9--9--9--9--2-2-2-2-2-2-2-2-2-2-|
|--------------------------------------------------------------------------------------------|
|--------------------------------------------------------------------------------------------|x4

Guitar 2:
|------------------------------------------------------------------|
|------------------------------------------------------------------|
|------------------------------------------------------------------|
|-2-2-2-2-2-2-2-2-6-6-6-6-6-6-6-6-----------------2-2-2-2-2-2-2-2--|
|-0-0-0-0-0-0-0-0-4-4-4-4-4-4-4-4-2-2-2-2-2-2-2-2-0-0-0-0-0-0-0-0--|
|---------------------------------0-0-0-0-0-0-0-0------------------|x4
................................................................

Guitar 3: (Background Ending)
|-----------|
|--(5)~-----|
|--(4)~-----|
|--(2)~-----|
|--(0)~-----|
|-----------|

In addition to Chords / Tabs Jimmy Eat World - Elecle (First Version), we offer an excerpt from a random book.- I can tell how my legs themselves led me to you, how I do not realize what I am doing.

LiveInternet